ISO-10303-21;
HEADER;
FILE_DESCRIPTION (( 'STEP AP203' ),
    '1' );
FILE_NAME ('pion outil ecrou de roulement inox qtt10.STEP',
    '2024-09-08T10:14:10',
    ( '' ),
    ( '' ),
    'SwSTEP 2.0',
    'SolidWorks 2023',
    '' );
FILE_SCHEMA (( 'CONFIG_CONTROL_DESIGN' ));
ENDSEC;

DATA;
#1 = CARTESIAN_POINT ( 'NONE',  ( -3.500000000000007550, 0.000000000000000000, 0.000000000000000000 ) ) ;
#2 = CARTESIAN_POINT ( 'NONE',  ( 4.000000000000000000, 0.000000000000000000, -12.49999999999998934 ) ) ;
#3 = DIRECTION ( 'NONE',  ( 1.000000000000000000, 0.000000000000000000, -0.000000000000000000 ) ) ;
#4 = CYLINDRICAL_SURFACE ( 'NONE', #29, 4.000000000000000000 ) ;
#5 = DIRECTION ( 'NONE',  ( 1.000000000000000000, 0.000000000000000000, 0.000000000000000000 ) ) ;
#6 = APPLICATION_PROTOCOL_DEFINITION ( 'international standard', 'config_control_design', 1994, #42 ) ;
#7 = AXIS2_PLACEMENT_3D ( 'NONE', #163, #222, #57 ) ;
#8 = CARTESIAN_POINT ( 'NONE',  ( -4.000000000000000000, 4.898587196589411843E-16, -12.49999999999998934 ) ) ;
#9 = APPROVAL_PERSON_ORGANIZATION ( #59, #140, #103 ) ;
#10 = CARTESIAN_POINT ( 'NONE',  ( 0.000000000000000000, 0.000000000000000000, 0.000000000000000000 ) ) ;
#11 = EDGE_CURVE ( 'NONE', #230, #85, #192, .T. ) ;
#12 = DIRECTION ( 'NONE',  ( 1.000000000000000000, 0.000000000000000000, 0.000000000000000000 ) ) ;
#13 = CARTESIAN_POINT ( 'NONE',  ( -4.000000000000000000, 4.898587196589411843E-16, -13.00000000000000000 ) ) ;
#14 = AXIS2_PLACEMENT_3D ( 'NONE', #49, #20, #3 ) ;
#15 = DATE_AND_TIME ( #272, #267 ) ;
#16 = ORIENTED_EDGE ( 'NONE', *, *, #250, .F. ) ;
#17 = CIRCLE ( 'NONE', #96, 3.500000000000007550 ) ;
#18 = ORIENTED_EDGE ( 'NONE', *, *, #135, .F. ) ;
#19 = EDGE_CURVE ( 'NONE', #274, #190, #17, .T. ) ;
#20 = DIRECTION ( 'NONE',  ( 0.000000000000000000, 0.000000000000000000, 1.000000000000000000 ) ) ;
#21 = DIRECTION ( 'NONE',  ( 0.000000000000000000, 0.000000000000000000, 1.000000000000000000 ) ) ;
#22 = DIRECTION ( 'NONE',  ( 1.000000000000000000, 0.000000000000000000, 0.000000000000000000 ) ) ;
#23 = ORIENTED_EDGE ( 'NONE', *, *, #19, .F. ) ;
#24 = AXIS2_PLACEMENT_3D ( 'NONE', #46, #217, #22 ) ;
#25 = CC_DESIGN_SECURITY_CLASSIFICATION ( #81, ( #154 ) ) ;
#26 = CARTESIAN_POINT ( 'NONE',  ( 0.000000000000000000, 0.000000000000000000, -13.00000000000000000 ) ) ;
#27 = APPROVAL_ROLE ( '' ) ;
#28 = CC_DESIGN_APPROVAL ( #101, ( #261 ) ) ;
#29 = AXIS2_PLACEMENT_3D ( 'NONE', #26, #136, #5 ) ;
#30 =( NAMED_UNIT ( * ) PLANE_ANGLE_UNIT ( ) SI_UNIT ( $, .RADIAN. ) );
#31 = APPLICATION_PROTOCOL_DEFINITION ( 'international standard', 'config_control_design', 1994, #50 ) ;
#32 = LINE ( 'NONE', #204, #69 ) ;
#33 = SHAPE_DEFINITION_REPRESENTATION ( #255, #106 ) ;
#34 = ADVANCED_FACE ( 'NONE', ( #172 ), #173, .T. ) ;
#35 = PERSON_AND_ORGANIZATION ( #205, #166 ) ;
#36 = CC_DESIGN_PERSON_AND_ORGANIZATION_ASSIGNMENT ( #246, #231, ( #154 ) ) ;
#37 = PERSON_AND_ORGANIZATION ( #205, #166 ) ;
#38 = ORIENTED_EDGE ( 'NONE', *, *, #252, .F. ) ;
#39 = AXIS2_PLACEMENT_3D ( 'NONE', #254, #93, #257 ) ;
#40 = ORIENTED_EDGE ( 'NONE', *, *, #264, .F. ) ;
#41 = DIRECTION ( 'NONE',  ( -0.7071067811865456854, 0.000000000000000000, -0.7071067811865493491 ) ) ;
#42 = APPLICATION_CONTEXT ( 'configuration controlled 3d designs of mechanical parts and assemblies' ) ;
#43 = ORIENTED_EDGE ( 'NONE', *, *, #208, .T. ) ;
#44 = APPROVAL_PERSON_ORGANIZATION ( #124, #101, #27 ) ;
#45 = APPROVAL ( #185, 'UNSPECIFIED' ) ;
#46 = CARTESIAN_POINT ( 'NONE',  ( 0.000000000000000000, 0.000000000000000000, -0.4999999999999952260 ) ) ;
#47 = MANIFOLD_SOLID_BREP ( 'Chanfrein1', #260 ) ;
#48 = DIRECTION ( 'NONE',  ( -0.000000000000000000, -0.000000000000000000, 1.000000000000000000 ) ) ;
#49 = CARTESIAN_POINT ( 'NONE',  ( 0.000000000000000000, 0.000000000000000000, -13.00000000000000000 ) ) ;
#50 = APPLICATION_CONTEXT ( 'configuration controlled 3d designs of mechanical parts and assemblies' ) ;
#51 = CONICAL_SURFACE ( 'NONE', #87, 3.500000000000007550, 0.7853981633974457255 ) ;
#52 = CARTESIAN_POINT ( 'NONE',  ( 3.500000000000007550, 4.592425496802578903E-16, 0.000000000000000000 ) ) ;
#53 = DIRECTION ( 'NONE',  ( 1.000000000000000000, 0.000000000000000000, 0.000000000000000000 ) ) ;
#54 = EDGE_CURVE ( 'NONE', #229, #104, #55, .T. ) ;
#55 = CIRCLE ( 'NONE', #251, 4.000000000000000000 ) ;
#56 = CC_DESIGN_APPROVAL ( #45, ( #154 ) ) ;
#57 = DIRECTION ( 'NONE',  ( 1.000000000000000000, 0.000000000000000000, 0.000000000000000000 ) ) ;
#58 = APPROVAL_STATUS ( 'not_yet_approved' ) ;
#59 = PERSON_AND_ORGANIZATION ( #205, #166 ) ;
#60 = EDGE_LOOP ( 'NONE', ( #170, #66, #150, #273 ) ) ;
#61 = DATE_TIME_ROLE ( 'classification_date' ) ;
#62 = ORIENTED_EDGE ( 'NONE', *, *, #199, .F. ) ;
#63 = APPROVAL_DATE_TIME ( #147, #45 ) ;
#64 = CIRCLE ( 'NONE', #159, 3.499999999999988454 ) ;
#65 = CARTESIAN_POINT ( 'NONE',  ( 0.000000000000000000, 0.000000000000000000, -12.49999999999998934 ) ) ;
#66 = ORIENTED_EDGE ( 'NONE', *, *, #11, .F. ) ;
#67 = EDGE_CURVE ( 'NONE', #104, #229, #266, .T. ) ;
#68 = CARTESIAN_POINT ( 'NONE',  ( 0.000000000000000000, 0.000000000000000000, -13.00000000000000000 ) ) ;
#69 = VECTOR ( 'NONE', #126, 1000.000000000000000 ) ;
#70 = PLANE ( 'NONE',  #14 ) ;
#71 = ADVANCED_FACE ( 'NONE', ( #152 ), #187, .T. ) ;
#72 = FACE_OUTER_BOUND ( 'NONE', #116, .T. ) ;
#73 = DIRECTION ( 'NONE',  ( -1.000000000000000000, 0.000000000000000000, 0.000000000000000000 ) ) ;
#74 = CARTESIAN_POINT ( 'NONE',  ( 3.499999999999988454, 0.000000000000000000, -13.00000000000000000 ) ) ;
#75 = CARTESIAN_POINT ( 'NONE',  ( 4.000000000000000000, 0.000000000000000000, -0.4999999999999952260 ) ) ;
#76 = PRODUCT_RELATED_PRODUCT_CATEGORY ( 'detail', '', ( #198 ) ) ;
#77 = VECTOR ( 'NONE', #90, 999.9999999999998863 ) ;
#78 = DATE_AND_TIME ( #129, #271 ) ;
#79 = VERTEX_POINT ( 'NONE', #195 ) ;
#80 = CONICAL_SURFACE ( 'NONE', #241, 4.000000000000000000, 0.7853981633974491672 ) ;
#81 = SECURITY_CLASSIFICATION ( '', '', #268 ) ;
#82 = ORIENTED_EDGE ( 'NONE', *, *, #250, .T. ) ;
#83 = DATE_TIME_ROLE ( 'creation_date' ) ;
#84 = EDGE_CURVE ( 'NONE', #190, #274, #178, .T. ) ;
#85 = VERTEX_POINT ( 'NONE', #258 ) ;
#86 = ORIENTED_EDGE ( 'NONE', *, *, #135, .T. ) ;
#87 = AXIS2_PLACEMENT_3D ( 'NONE', #98, #123, #73 ) ;
#88 = ADVANCED_FACE ( 'NONE', ( #175 ), #80, .T. ) ;
#89 = ORIENTED_EDGE ( 'NONE', *, *, #252, .T. ) ;
#90 = DIRECTION ( 'NONE',  ( 0.7071067811865482389, 0.000000000000000000, 0.7071067811865469066 ) ) ;
#91 = DIRECTION ( 'NONE',  ( 1.000000000000000000, 0.000000000000000000, 0.000000000000000000 ) ) ;
#92 = ADVANCED_FACE ( 'NONE', ( #72 ), #4, .T. ) ;
#93 = DIRECTION ( 'NONE',  ( 0.000000000000000000, 0.000000000000000000, 1.000000000000000000 ) ) ;
#94 = CARTESIAN_POINT ( 'NONE',  ( 0.000000000000000000, 0.000000000000000000, -12.49999999999998934 ) ) ;
#95 = DIRECTION ( 'NONE',  ( 1.000000000000000000, 0.000000000000000000, -0.000000000000000000 ) ) ;
#96 = AXIS2_PLACEMENT_3D ( 'NONE', #197, #21, #111 ) ;
#97 = EDGE_CURVE ( 'NONE', #230, #104, #214, .T. ) ;
#98 = CARTESIAN_POINT ( 'NONE',  ( 0.000000000000000000, 0.000000000000000000, 0.000000000000000000 ) ) ;
#99 =( LENGTH_UNIT ( ) NAMED_UNIT ( * ) SI_UNIT ( .MILLI., .METRE. ) );
#100 = CALENDAR_DATE ( 2024, 8, 9 ) ;
#101 = APPROVAL ( #58, 'UNSPECIFIED' ) ;
#102 = AXIS2_PLACEMENT_3D ( 'NONE', #10, #139, #95 ) ;
#103 = APPROVAL_ROLE ( '' ) ;
#104 = VERTEX_POINT ( 'NONE', #219 ) ;
#105 = ORIENTED_EDGE ( 'NONE', *, *, #19, .T. ) ;
#106 = ADVANCED_BREP_SHAPE_REPRESENTATION ( 'pion outil ecrou de roulement inox qtt10', ( #47, #7 ), #112 ) ;
#107 = PERSON_AND_ORGANIZATION_ROLE ( 'design_supplier' ) ;
#108 = EDGE_LOOP ( 'NONE', ( #186, #210, #191, #62 ) ) ;
#109 = EDGE_LOOP ( 'NONE', ( #38, #43, #142, #270 ) ) ;
#110 = CC_DESIGN_PERSON_AND_ORGANIZATION_ASSIGNMENT ( #245, #225, ( #198 ) ) ;
#111 = DIRECTION ( 'NONE',  ( 1.000000000000000000, 0.000000000000000000, 0.000000000000000000 ) ) ;
#112 =( GEOMETRIC_REPRESENTATION_CONTEXT ( 3 ) GLOBAL_UNCERTAINTY_ASSIGNED_CONTEXT ( ( #181 ) ) GLOBAL_UNIT_ASSIGNED_CONTEXT ( ( #99, #30, #201 ) ) REPRESENTATION_CONTEXT ( 'NONE', 'WORKASPACE' ) );
#113 = DIRECTION ( 'NONE',  ( -0.000000000000000000, -0.000000000000000000, -1.000000000000000000 ) ) ;
#114 = CC_DESIGN_DATE_AND_TIME_ASSIGNMENT ( #78, #83, ( #261 ) ) ;
#115 = ORIENTED_EDGE ( 'NONE', *, *, #157, .F. ) ;
#116 = EDGE_LOOP ( 'NONE', ( #40, #165, #82, #269 ) ) ;
#117 = CIRCLE ( 'NONE', #24, 4.000000000000000000 ) ;
#118 = DIRECTION ( 'NONE',  ( -0.000000000000000000, -0.000000000000000000, 1.000000000000000000 ) ) ;
#119 = MECHANICAL_CONTEXT ( 'NONE', #42, 'mechanical' ) ;
#120 = CC_DESIGN_PERSON_AND_ORGANIZATION_ASSIGNMENT ( #212, #107, ( #154 ) ) ;
#121 = COORDINATED_UNIVERSAL_TIME_OFFSET ( 1, 0, .AHEAD. ) ;
#122 = CIRCLE ( 'NONE', #171, 4.000000000000000000 ) ;
#123 = DIRECTION ( 'NONE',  ( 0.000000000000000000, 0.000000000000000000, -1.000000000000000000 ) ) ;
#124 = PERSON_AND_ORGANIZATION ( #205, #166 ) ;
#125 = ADVANCED_FACE ( 'NONE', ( #153 ), #247, .T. ) ;
#126 = DIRECTION ( 'NONE',  ( 0.7071067811865456854, 8.659560562354910671E-17, -0.7071067811865493491 ) ) ;
#127 = AXIS2_PLACEMENT_3D ( 'NONE', #65, #48, #256 ) ;
#128 = APPROVAL_STATUS ( 'not_yet_approved' ) ;
#129 = CALENDAR_DATE ( 2024, 8, 9 ) ;
#130 = COORDINATED_UNIVERSAL_TIME_OFFSET ( 1, 0, .AHEAD. ) ;
#131 = EDGE_LOOP ( 'NONE', ( #23, #133, #18, #115 ) ) ;
#132 = CARTESIAN_POINT ( 'NONE',  ( 0.000000000000000000, 0.000000000000000000, -12.49999999999998934 ) ) ;
#133 = ORIENTED_EDGE ( 'NONE', *, *, #218, .T. ) ;
#134 = CARTESIAN_POINT ( 'NONE',  ( 0.000000000000000000, 0.000000000000000000, 0.000000000000000000 ) ) ;
#135 = EDGE_CURVE ( 'NONE', #79, #213, #117, .T. ) ;
#136 = DIRECTION ( 'NONE',  ( 0.000000000000000000, 0.000000000000000000, 1.000000000000000000 ) ) ;
#137 = DIRECTION ( 'NONE',  ( 1.000000000000000000, 0.000000000000000000, 0.000000000000000000 ) ) ;
#138 = VECTOR ( 'NONE', #41, 1000.000000000000000 ) ;
#139 = DIRECTION ( 'NONE',  ( 0.000000000000000000, 0.000000000000000000, 1.000000000000000000 ) ) ;
#140 = APPROVAL ( #128, 'UNSPECIFIED' ) ;
#141 = DIRECTION ( 'NONE',  ( 0.000000000000000000, 0.000000000000000000, -1.000000000000000000 ) ) ;
#142 = ORIENTED_EDGE ( 'NONE', *, *, #67, .F. ) ;
#143 = COORDINATED_UNIVERSAL_TIME_OFFSET ( 1, 0, .AHEAD. ) ;
#144 = ORIENTED_EDGE ( 'NONE', *, *, #264, .T. ) ;
#145 = ADVANCED_FACE ( 'NONE', ( #151 ), #70, .F. ) ;
#146 = ORIENTED_EDGE ( 'NONE', *, *, #11, .T. ) ;
#147 = DATE_AND_TIME ( #248, #174 ) ;
#148 = VECTOR ( 'NONE', #161, 999.9999999999998863 ) ;
#149 = PERSON_AND_ORGANIZATION ( #205, #166 ) ;
#150 = ORIENTED_EDGE ( 'NONE', *, *, #97, .T. ) ;
#151 = FACE_OUTER_BOUND ( 'NONE', #188, .T. ) ;
#152 = FACE_OUTER_BOUND ( 'NONE', #60, .T. ) ;
#153 = FACE_OUTER_BOUND ( 'NONE', #131, .T. ) ;
#154 = PRODUCT_DEFINITION_FORMATION_WITH_SPECIFIED_SOURCE ( 'ANY', '', #198, .NOT_KNOWN. ) ;
#155 = EDGE_LOOP ( 'NONE', ( #216, #144, #86, #16 ) ) ;
#156 = CARTESIAN_POINT ( 'NONE',  ( 0.000000000000000000, 0.000000000000000000, 0.000000000000000000 ) ) ;
#157 = EDGE_CURVE ( 'NONE', #190, #79, #193, .T. ) ;
#158 = DIRECTION ( 'NONE',  ( 0.000000000000000000, 0.000000000000000000, 1.000000000000000000 ) ) ;
#159 = AXIS2_PLACEMENT_3D ( 'NONE', #160, #179, #53 ) ;
#160 = CARTESIAN_POINT ( 'NONE',  ( 0.000000000000000000, 0.000000000000000000, -13.00000000000000000 ) ) ;
#161 = DIRECTION ( 'NONE',  ( -0.7071067811865482389, 8.659560562354941486E-17, 0.7071067811865469066 ) ) ;
#162 = LOCAL_TIME ( 12, 14, 10.00000000000000000, #189 ) ;
#163 = CARTESIAN_POINT ( 'NONE',  ( 0.000000000000000000, 0.000000000000000000, 0.000000000000000000 ) ) ;
#164 = APPROVAL_DATE_TIME ( #211, #140 ) ;
#165 = ORIENTED_EDGE ( 'NONE', *, *, #54, .T. ) ;
#166 = ORGANIZATION ( 'UNSPECIFIED', 'UNSPECIFIED', '' ) ;
#167 = CC_DESIGN_APPROVAL ( #140, ( #81 ) ) ;
#168 = COORDINATED_UNIVERSAL_TIME_OFFSET ( 1, 0, .AHEAD. ) ;
#169 = EDGE_LOOP ( 'NONE', ( #249, #105 ) ) ;
#170 = ORIENTED_EDGE ( 'NONE', *, *, #208, .F. ) ;
#171 = AXIS2_PLACEMENT_3D ( 'NONE', #262, #141, #12 ) ;
#172 = FACE_OUTER_BOUND ( 'NONE', #155, .T. ) ;
#173 = CYLINDRICAL_SURFACE ( 'NONE', #39, 4.000000000000000000 ) ;
#174 = LOCAL_TIME ( 12, 14, 10.00000000000000000, #130 ) ;
#175 = FACE_OUTER_BOUND ( 'NONE', #109, .T. ) ;
#176 = DIRECTION ( 'NONE',  ( 1.000000000000000000, 0.000000000000000000, 0.000000000000000000 ) ) ;
#177 = LINE ( 'NONE', #13, #227 ) ;
#178 = CIRCLE ( 'NONE', #207, 3.500000000000007550 ) ;
#179 = DIRECTION ( 'NONE',  ( -0.000000000000000000, -0.000000000000000000, -1.000000000000000000 ) ) ;
#180 = FACE_OUTER_BOUND ( 'NONE', #108, .T. ) ;
#181 = UNCERTAINTY_MEASURE_WITH_UNIT (LENGTH_MEASURE( 1.000000000000000082E-05 ), #99, 'distance_accuracy_value', 'NONE');
#182 = LINE ( 'NONE', #263, #275 ) ;
#183 = PERSON_AND_ORGANIZATION_ROLE ( 'classification_officer' ) ;
#184 = CC_DESIGN_PERSON_AND_ORGANIZATION_ASSIGNMENT ( #37, #233, ( #261 ) ) ;
#185 = APPROVAL_STATUS ( 'not_yet_approved' ) ;
#186 = ORIENTED_EDGE ( 'NONE', *, *, #218, .F. ) ;
#187 = CONICAL_SURFACE ( 'NONE', #127, 4.000000000000000000, 0.7853981633974491672 ) ;
#188 = EDGE_LOOP ( 'NONE', ( #146, #89 ) ) ;
#189 = COORDINATED_UNIVERSAL_TIME_OFFSET ( 1, 0, .AHEAD. ) ;
#190 = VERTEX_POINT ( 'NONE', #1 ) ;
#191 = ORIENTED_EDGE ( 'NONE', *, *, #157, .T. ) ;
#192 = CIRCLE ( 'NONE', #220, 3.499999999999988454 ) ;
#193 = LINE ( 'NONE', #234, #138 ) ;
#194 = DIRECTION ( 'NONE',  ( -0.000000000000000000, -0.000000000000000000, 1.000000000000000000 ) ) ;
#195 = CARTESIAN_POINT ( 'NONE',  ( -4.000000000000000000, 4.898587196589411843E-16, -0.4999999999999952260 ) ) ;
#196 = AXIS2_PLACEMENT_3D ( 'NONE', #132, #118, #137 ) ;
#197 = CARTESIAN_POINT ( 'NONE',  ( 0.000000000000000000, 0.000000000000000000, 0.000000000000000000 ) ) ;
#198 = PRODUCT ( 'pion outil ecrou de roulement inox qtt10', 'pion outil ecrou de roulement inox qtt10', '', ( #119 ) ) ;
#199 = EDGE_CURVE ( 'NONE', #213, #79, #122, .T. ) ;
#200 = DIRECTION ( 'NONE',  ( -0.000000000000000000, -0.000000000000000000, 1.000000000000000000 ) ) ;
#201 =( NAMED_UNIT ( * ) SI_UNIT ( $, .STERADIAN. ) SOLID_ANGLE_UNIT ( ) );
#202 = APPROVAL_DATE_TIME ( #265, #101 ) ;
#203 = LOCAL_TIME ( 12, 14, 10.00000000000000000, #121 ) ;
#204 = CARTESIAN_POINT ( 'NONE',  ( 3.500000000000007550, 4.286263797015745470E-16, 0.000000000000000000 ) ) ;
#205 = PERSON ( 'UNSPECIFIED', 'UNSPECIFIED', 'UNSPECIFIED', ('UNSPECIFIED'), ('UNSPECIFIED'), ('UNSPECIFIED') ) ;
#206 = FACE_OUTER_BOUND ( 'NONE', #169, .T. ) ;
#207 = AXIS2_PLACEMENT_3D ( 'NONE', #134, #221, #176 ) ;
#208 = EDGE_CURVE ( 'NONE', #85, #229, #226, .T. ) ;
#209 = APPROVAL_ROLE ( '' ) ;
#210 = ORIENTED_EDGE ( 'NONE', *, *, #84, .F. ) ;
#211 = DATE_AND_TIME ( #228, #162 ) ;
#212 = PERSON_AND_ORGANIZATION ( #205, #166 ) ;
#213 = VERTEX_POINT ( 'NONE', #75 ) ;
#214 = LINE ( 'NONE', #2, #77 ) ;
#215 = CC_DESIGN_DATE_AND_TIME_ASSIGNMENT ( #15, #61, ( #81 ) ) ;
#216 = ORIENTED_EDGE ( 'NONE', *, *, #67, .T. ) ;
#217 = DIRECTION ( 'NONE',  ( 0.000000000000000000, 0.000000000000000000, -1.000000000000000000 ) ) ;
#218 = EDGE_CURVE ( 'NONE', #274, #213, #32, .T. ) ;
#219 = CARTESIAN_POINT ( 'NONE',  ( 4.000000000000000000, 0.000000000000000000, -12.49999999999998934 ) ) ;
#220 = AXIS2_PLACEMENT_3D ( 'NONE', #68, #113, #253 ) ;
#221 = DIRECTION ( 'NONE',  ( 0.000000000000000000, 0.000000000000000000, 1.000000000000000000 ) ) ;
#222 = DIRECTION ( 'NONE',  ( 0.000000000000000000, 0.000000000000000000, 1.000000000000000000 ) ) ;
#223 = DIRECTION ( 'NONE',  ( 0.000000000000000000, 0.000000000000000000, 1.000000000000000000 ) ) ;
#224 = APPROVAL_PERSON_ORGANIZATION ( #35, #45, #209 ) ;
#225 = PERSON_AND_ORGANIZATION_ROLE ( 'design_owner' ) ;
#226 = LINE ( 'NONE', #259, #148 ) ;
#227 = VECTOR ( 'NONE', #158, 1000.000000000000000 ) ;
#228 = CALENDAR_DATE ( 2024, 8, 9 ) ;
#229 = VERTEX_POINT ( 'NONE', #8 ) ;
#230 = VERTEX_POINT ( 'NONE', #74 ) ;
#231 = PERSON_AND_ORGANIZATION_ROLE ( 'creator' ) ;
#232 = AXIS2_PLACEMENT_3D ( 'NONE', #156, #239, #236 ) ;
#233 = PERSON_AND_ORGANIZATION_ROLE ( 'creator' ) ;
#234 = CARTESIAN_POINT ( 'NONE',  ( -3.500000000000007550, 0.000000000000000000, 0.000000000000000000 ) ) ;
#235 = DIRECTION ( 'NONE',  ( 1.000000000000000000, 0.000000000000000000, 0.000000000000000000 ) ) ;
#236 = DIRECTION ( 'NONE',  ( -1.000000000000000000, 0.000000000000000000, 0.000000000000000000 ) ) ;
#237 = CC_DESIGN_PERSON_AND_ORGANIZATION_ASSIGNMENT ( #149, #183, ( #81 ) ) ;
#238 = CARTESIAN_POINT ( 'NONE',  ( 0.000000000000000000, 0.000000000000000000, -12.49999999999998934 ) ) ;
#239 = DIRECTION ( 'NONE',  ( 0.000000000000000000, 0.000000000000000000, -1.000000000000000000 ) ) ;
#240 = DESIGN_CONTEXT ( 'detailed design', #50, 'design' ) ;
#241 = AXIS2_PLACEMENT_3D ( 'NONE', #238, #200, #235 ) ;
#242 = ADVANCED_FACE ( 'NONE', ( #206 ), #243, .T. ) ;
#243 = PLANE ( 'NONE',  #102 ) ;
#244 = ADVANCED_FACE ( 'NONE', ( #180 ), #51, .T. ) ;
#245 = PERSON_AND_ORGANIZATION ( #205, #166 ) ;
#246 = PERSON_AND_ORGANIZATION ( #205, #166 ) ;
#247 = CONICAL_SURFACE ( 'NONE', #232, 3.500000000000007550, 0.7853981633974457255 ) ;
#248 = CALENDAR_DATE ( 2024, 8, 9 ) ;
#249 = ORIENTED_EDGE ( 'NONE', *, *, #84, .T. ) ;
#250 = EDGE_CURVE ( 'NONE', #104, #213, #182, .T. ) ;
#251 = AXIS2_PLACEMENT_3D ( 'NONE', #94, #194, #91 ) ;
#252 = EDGE_CURVE ( 'NONE', #85, #230, #64, .T. ) ;
#253 = DIRECTION ( 'NONE',  ( 1.000000000000000000, 0.000000000000000000, 0.000000000000000000 ) ) ;
#254 = CARTESIAN_POINT ( 'NONE',  ( 0.000000000000000000, 0.000000000000000000, -13.00000000000000000 ) ) ;
#255 = PRODUCT_DEFINITION_SHAPE ( 'NONE', 'NONE',  #261 ) ;
#256 = DIRECTION ( 'NONE',  ( 1.000000000000000000, 0.000000000000000000, 0.000000000000000000 ) ) ;
#257 = DIRECTION ( 'NONE',  ( 1.000000000000000000, 0.000000000000000000, 0.000000000000000000 ) ) ;
#258 = CARTESIAN_POINT ( 'NONE',  ( -3.499999999999988454, 4.592425496802567070E-16, -13.00000000000000000 ) ) ;
#259 = CARTESIAN_POINT ( 'NONE',  ( -4.000000000000000000, 4.898587196589412829E-16, -12.49999999999998934 ) ) ;
#260 = CLOSED_SHELL ( 'NONE', ( #125, #88, #34, #92, #145, #242, #71, #244 ) ) ;
#261 = PRODUCT_DEFINITION ( 'UNKNOWN', '', #154, #240 ) ;
#262 = CARTESIAN_POINT ( 'NONE',  ( 0.000000000000000000, 0.000000000000000000, -0.4999999999999952260 ) ) ;
#263 = CARTESIAN_POINT ( 'NONE',  ( 4.000000000000000000, 0.000000000000000000, -13.00000000000000000 ) ) ;
#264 = EDGE_CURVE ( 'NONE', #229, #79, #177, .T. ) ;
#265 = DATE_AND_TIME ( #100, #203 ) ;
#266 = CIRCLE ( 'NONE', #196, 4.000000000000000000 ) ;
#267 = LOCAL_TIME ( 12, 14, 10.00000000000000000, #143 ) ;
#268 = SECURITY_CLASSIFICATION_LEVEL ( 'unclassified' ) ;
#269 = ORIENTED_EDGE ( 'NONE', *, *, #199, .T. ) ;
#270 = ORIENTED_EDGE ( 'NONE', *, *, #97, .F. ) ;
#271 = LOCAL_TIME ( 12, 14, 10.00000000000000000, #168 ) ;
#272 = CALENDAR_DATE ( 2024, 8, 9 ) ;
#273 = ORIENTED_EDGE ( 'NONE', *, *, #54, .F. ) ;
#274 = VERTEX_POINT ( 'NONE', #52 ) ;
#275 = VECTOR ( 'NONE', #223, 1000.000000000000000 ) ;
ENDSEC;
END-ISO-10303-21;
