ISO-10303-21;
HEADER;

/* File generated by Shapr3D Version 3.0 */

FILE_DESCRIPTION(('HOOPS Exchange Step'),'2;1');

FILE_NAME('/var/folders/j5/sh06r4v930zdqmtf__2724q40000gn/T/com.shapr3d.shapr/export/temp_export',
'2024-09-18T15:18:48+02:00',
('nexusfinance'),
('Shapr3D Limited'),
'HOOPS Exchange 2023.2',
'Shapr3D',
'Authorized');

FILE_SCHEMA( ('AUTOMOTIVE_DESIGN { 1 0 10303 214 1 1 1 1 }') );

ENDSEC;

DATA;
#3=(NAMED_UNIT(*)PLANE_ANGLE_UNIT()SI_UNIT($,.RADIAN.));
#4=PLANE_ANGLE_MEASURE_WITH_UNIT(PLANE_ANGLE_MEASURE(0.0174532925),#3);
#5=(CONVERSION_BASED_UNIT('DEGREE',#4)NAMED_UNIT(#6)PLANE_ANGLE_UNIT());
#6=DIMENSIONAL_EXPONENTS(0.,0.,0.,0.,0.,0.,0.);
#7=(NAMED_UNIT(*)SI_UNIT($,.STERADIAN.)SOLID_ANGLE_UNIT());
#8=(LENGTH_UNIT()NAMED_UNIT(*)SI_UNIT(.MILLI.,.METRE.));
#9=UNCERTAINTY_MEASURE_WITH_UNIT(LENGTH_MEASURE(1.000000E-05),#8,'DISTANCE_ACCURACY_VALUE','Maximum Tolerance applied to model');
#10=(GEOMETRIC_REPRESENTATION_CONTEXT(3)GLOBAL_UNCERTAINTY_ASSIGNED_CONTEXT((#9))GLOBAL_UNIT_ASSIGNED_CONTEXT((#8,#5,#7))REPRESENTATION_CONTEXT('','root'));
#12=CARTESIAN_POINT('',(0.,0.,0.));
#13=DIRECTION('',(0.,0.,1.));
#14=DIRECTION('',(1.,0.,0.));
#15=AXIS2_PLACEMENT_3D('TS3D_PRODUCT_CSYS',#12,#13,#14);
#27=CARTESIAN_POINT('',(0.,0.,-24.8));
#28=DIRECTION('',(0.,0.,1.));
#29=DIRECTION('',(1.,0.,-0.));
#30=AXIS2_PLACEMENT_3D('',#27,#28,#29);
#31=CYLINDRICAL_SURFACE('',#30,2.1);
#32=CARTESIAN_POINT('',(2.1,-0.,21.));
#33=VERTEX_POINT('',#32);
#34=CARTESIAN_POINT('',(2.1,-0.,-3.4));
#35=VERTEX_POINT('',#34);
#36=CARTESIAN_POINT('',(2.1,0.,21.));
#37=DIRECTION('',(-0.,-0.,-1.));
#38=VECTOR('',#37,24.4);
#39=LINE('',#36,#38);
#40=EDGE_CURVE('',#33,#35,#39,.T.);
#41=ORIENTED_EDGE('',*,*,#40,.F.);
#42=CARTESIAN_POINT('',(2.,0.640312424,21.));
#43=VERTEX_POINT('',#42);
#44=CARTESIAN_POINT('',(0.,0.,21.));
#45=DIRECTION('',(0.,0.,1.));
#46=DIRECTION('',(1.,0.,-0.));
#47=AXIS2_PLACEMENT_3D('',#44,#45,#46);
#48=CIRCLE('',#47,2.1);
#49=EDGE_CURVE('',#33,#43,#48,.T.);
#50=ORIENTED_EDGE('',*,*,#49,.T.);
#51=CARTESIAN_POINT('',(2.,0.640312424,23.));
#52=VERTEX_POINT('',#51);
#53=CARTESIAN_POINT('',(2.,0.640312424,23.));
#54=DIRECTION('',(-0.,-0.,-1.));
#55=VECTOR('',#54,2.);
#56=LINE('',#53,#55);
#57=EDGE_CURVE('',#52,#43,#56,.T.);
#58=ORIENTED_EDGE('',*,*,#57,.F.);
#59=CARTESIAN_POINT('',(-2.,0.640312424,23.));
#60=VERTEX_POINT('',#59);
#61=CARTESIAN_POINT('',(0.,0.,23.));
#62=DIRECTION('',(0.,0.,1.));
#63=DIRECTION('',(1.,0.,-0.));
#64=AXIS2_PLACEMENT_3D('',#61,#62,#63);
#65=CIRCLE('',#64,2.1);
#66=EDGE_CURVE('',#52,#60,#65,.T.);
#67=ORIENTED_EDGE('',*,*,#66,.T.);
#68=CARTESIAN_POINT('',(-2.,0.640312424,21.));
#69=VERTEX_POINT('',#68);
#70=CARTESIAN_POINT('',(-2.,0.640312424,21.));
#71=DIRECTION('',(0.,0.,1.));
#72=VECTOR('',#71,2.);
#73=LINE('',#70,#72);
#74=EDGE_CURVE('',#69,#60,#73,.T.);
#75=ORIENTED_EDGE('',*,*,#74,.F.);
#76=CARTESIAN_POINT('',(-2.,-0.640312424,21.));
#77=VERTEX_POINT('',#76);
#78=CARTESIAN_POINT('',(0.,0.,21.));
#79=DIRECTION('',(0.,0.,1.));
#80=DIRECTION('',(1.,0.,-0.));
#81=AXIS2_PLACEMENT_3D('',#78,#79,#80);
#82=CIRCLE('',#81,2.1);
#83=EDGE_CURVE('',#69,#77,#82,.T.);
#84=ORIENTED_EDGE('',*,*,#83,.T.);
#85=CARTESIAN_POINT('',(-2.,-0.640312424,23.));
#86=VERTEX_POINT('',#85);
#87=CARTESIAN_POINT('',(-2.,-0.640312424,23.));
#88=DIRECTION('',(-0.,-0.,-1.));
#89=VECTOR('',#88,2.);
#90=LINE('',#87,#89);
#91=EDGE_CURVE('',#86,#77,#90,.T.);
#92=ORIENTED_EDGE('',*,*,#91,.F.);
#93=CARTESIAN_POINT('',(2.,-0.640312424,23.));
#94=VERTEX_POINT('',#93);
#95=CARTESIAN_POINT('',(0.,0.,23.));
#96=DIRECTION('',(0.,0.,1.));
#97=DIRECTION('',(1.,0.,-0.));
#98=AXIS2_PLACEMENT_3D('',#95,#96,#97);
#99=CIRCLE('',#98,2.1);
#100=EDGE_CURVE('',#86,#94,#99,.T.);
#101=ORIENTED_EDGE('',*,*,#100,.T.);
#102=CARTESIAN_POINT('',(2.,-0.640312424,21.));
#103=VERTEX_POINT('',#102);
#104=CARTESIAN_POINT('',(2.,-0.640312424,21.));
#105=DIRECTION('',(0.,0.,1.));
#106=VECTOR('',#105,2.);
#107=LINE('',#104,#106);
#108=EDGE_CURVE('',#103,#94,#107,.T.);
#109=ORIENTED_EDGE('',*,*,#108,.F.);
#110=CARTESIAN_POINT('',(0.,0.,21.));
#111=DIRECTION('',(0.,0.,1.));
#112=DIRECTION('',(1.,0.,-0.));
#113=AXIS2_PLACEMENT_3D('',#110,#111,#112);
#114=CIRCLE('',#113,2.1);
#115=EDGE_CURVE('',#103,#33,#114,.T.);
#116=ORIENTED_EDGE('',*,*,#115,.T.);
#117=ORIENTED_EDGE('',*,*,#40,.T.);
#118=CARTESIAN_POINT('',(-2.1,0.,-3.4));
#119=VERTEX_POINT('',#118);
#120=CARTESIAN_POINT('',(0.,0.,-3.4));
#121=DIRECTION('',(0.,0.,1.));
#122=DIRECTION('',(-1.,0.,0.));
#123=AXIS2_PLACEMENT_3D('',#120,#121,#122);
#124=CIRCLE('',#123,2.1);
#125=EDGE_CURVE('',#119,#35,#124,.T.);
#126=ORIENTED_EDGE('',*,*,#125,.F.);
#127=CARTESIAN_POINT('',(0.,0.,-3.4));
#128=DIRECTION('',(0.,0.,1.));
#129=DIRECTION('',(-1.,0.,0.));
#130=AXIS2_PLACEMENT_3D('',#127,#128,#129);
#131=CIRCLE('',#130,2.1);
#132=EDGE_CURVE('',#35,#119,#131,.T.);
#133=ORIENTED_EDGE('',*,*,#132,.F.);
#134=EDGE_LOOP('',(#41,#50,#58,#67,#75,#84,#92,#101,#109,#116,#117,#126,#133));
#135=FACE_BOUND('',#134,.T.);
#136=ADVANCED_FACE('',(#135),#31,.F.);
#137=CARTESIAN_POINT('',(0.,0.,23.));
#138=DIRECTION('',(0.,0.,1.));
#139=DIRECTION('',(1.,0.,0.));
#140=AXIS2_PLACEMENT_3D('',#137,#138,#139);
#141=PLANE('',#140);
#142=ORIENTED_EDGE('',*,*,#66,.F.);
#143=CARTESIAN_POINT('',(2.,4.031128874,23.));
#144=VERTEX_POINT('',#143);
#145=CARTESIAN_POINT('',(2.,4.031128874,23.));
#146=DIRECTION('',(0.,-1.,0.));
#147=VECTOR('',#146,3.39081645);
#148=LINE('',#145,#147);
#149=EDGE_CURVE('',#144,#52,#148,.T.);
#150=ORIENTED_EDGE('',*,*,#149,.F.);
#151=CARTESIAN_POINT('',(-2.,4.031128874,23.));
#152=VERTEX_POINT('',#151);
#153=CARTESIAN_POINT('',(0.,0.,23.));
#154=DIRECTION('',(0.,0.,1.));
#155=DIRECTION('',(1.,0.,-0.));
#156=AXIS2_PLACEMENT_3D('',#153,#154,#155);
#157=CIRCLE('',#156,4.5);
#158=EDGE_CURVE('',#144,#152,#157,.T.);
#159=ORIENTED_EDGE('',*,*,#158,.T.);
#160=CARTESIAN_POINT('',(-2.,0.640312424,23.));
#161=DIRECTION('',(0.,1.,0.));
#162=VECTOR('',#161,3.39081645);
#163=LINE('',#160,#162);
#164=EDGE_CURVE('',#60,#152,#163,.T.);
#165=ORIENTED_EDGE('',*,*,#164,.F.);
#166=EDGE_LOOP('',(#142,#150,#159,#165));
#167=FACE_BOUND('',#166,.T.);
#168=ADVANCED_FACE('',(#167),#141,.T.);
#169=CARTESIAN_POINT('',(-2.,0.,21.));
#170=DIRECTION('',(1.,0.,0.));
#171=DIRECTION('',(0.,0.,-1.));
#172=AXIS2_PLACEMENT_3D('',#169,#170,#171);
#173=PLANE('',#172);
#174=CARTESIAN_POINT('',(-2.,4.031128874,21.));
#175=VERTEX_POINT('',#174);
#176=CARTESIAN_POINT('',(-2.,0.640312424,21.));
#177=DIRECTION('',(0.,1.,0.));
#178=VECTOR('',#177,3.39081645);
#179=LINE('',#176,#178);
#180=EDGE_CURVE('',#69,#175,#179,.T.);
#181=ORIENTED_EDGE('',*,*,#180,.F.);
#182=ORIENTED_EDGE('',*,*,#74,.T.);
#183=ORIENTED_EDGE('',*,*,#164,.T.);
#184=CARTESIAN_POINT('',(-2.,4.031128874,21.));
#185=DIRECTION('',(0.,0.,1.));
#186=VECTOR('',#185,2.);
#187=LINE('',#184,#186);
#188=EDGE_CURVE('',#175,#152,#187,.T.);
#189=ORIENTED_EDGE('',*,*,#188,.F.);
#190=EDGE_LOOP('',(#181,#182,#183,#189));
#191=FACE_BOUND('',#190,.T.);
#192=ADVANCED_FACE('',(#191),#173,.F.);
#193=CARTESIAN_POINT('',(2.,0.,21.));
#194=DIRECTION('',(-1.,0.,0.));
#195=DIRECTION('',(0.,0.,1.));
#196=AXIS2_PLACEMENT_3D('',#193,#194,#195);
#197=PLANE('',#196);
#198=CARTESIAN_POINT('',(2.,-4.031128874,21.));
#199=VERTEX_POINT('',#198);
#200=CARTESIAN_POINT('',(2.,-0.640312424,21.));
#201=DIRECTION('',(0.,-1.,0.));
#202=VECTOR('',#201,3.39081645);
#203=LINE('',#200,#202);
#204=EDGE_CURVE('',#103,#199,#203,.T.);
#205=ORIENTED_EDGE('',*,*,#204,.F.);
#206=ORIENTED_EDGE('',*,*,#108,.T.);
#207=CARTESIAN_POINT('',(2.,-4.031128874,23.));
#208=VERTEX_POINT('',#207);
#209=CARTESIAN_POINT('',(2.,-0.640312424,23.));
#210=DIRECTION('',(0.,-1.,0.));
#211=VECTOR('',#210,3.39081645);
#212=LINE('',#209,#211);
#213=EDGE_CURVE('',#94,#208,#212,.T.);
#214=ORIENTED_EDGE('',*,*,#213,.T.);
#215=CARTESIAN_POINT('',(2.,-4.031128874,21.));
#216=DIRECTION('',(0.,0.,1.));
#217=VECTOR('',#216,2.);
#218=LINE('',#215,#217);
#219=EDGE_CURVE('',#199,#208,#218,.T.);
#220=ORIENTED_EDGE('',*,*,#219,.F.);
#221=EDGE_LOOP('',(#205,#206,#214,#220));
#222=FACE_BOUND('',#221,.T.);
#223=ADVANCED_FACE('',(#222),#197,.F.);
#224=CARTESIAN_POINT('',(0.,0.,23.));
#225=DIRECTION('',(0.,0.,-1.));
#226=DIRECTION('',(-1.,0.,0.));
#227=AXIS2_PLACEMENT_3D('',#224,#225,#226);
#228=CYLINDRICAL_SURFACE('',#227,4.5);
#229=CARTESIAN_POINT('',(-4.5,0.,-10.));
#230=VERTEX_POINT('',#229);
#231=CARTESIAN_POINT('',(-4.5,0.,21.));
#232=VERTEX_POINT('',#231);
#233=CARTESIAN_POINT('',(-4.5,0.,-10.));
#234=DIRECTION('',(-0.,-0.,1.));
#235=VECTOR('',#234,31.);
#236=LINE('',#233,#235);
#237=EDGE_CURVE('',#230,#232,#236,.T.);
#238=ORIENTED_EDGE('',*,*,#237,.T.);
#239=CARTESIAN_POINT('',(0.,0.,21.));
#240=DIRECTION('',(0.,0.,1.));
#241=DIRECTION('',(1.,0.,-0.));
#242=AXIS2_PLACEMENT_3D('',#239,#240,#241);
#243=CIRCLE('',#242,4.5);
#244=EDGE_CURVE('',#175,#232,#243,.T.);
#245=ORIENTED_EDGE('',*,*,#244,.F.);
#246=ORIENTED_EDGE('',*,*,#188,.T.);
#247=ORIENTED_EDGE('',*,*,#158,.F.);
#248=CARTESIAN_POINT('',(2.,4.031128874,21.));
#249=VERTEX_POINT('',#248);
#250=CARTESIAN_POINT('',(2.,4.031128874,21.));
#251=DIRECTION('',(0.,0.,1.));
#252=VECTOR('',#251,2.);
#253=LINE('',#250,#252);
#254=EDGE_CURVE('',#249,#144,#253,.T.);
#255=ORIENTED_EDGE('',*,*,#254,.F.);
#256=CARTESIAN_POINT('',(0.,0.,21.));
#257=DIRECTION('',(0.,0.,1.));
#258=DIRECTION('',(1.,0.,-0.));
#259=AXIS2_PLACEMENT_3D('',#256,#257,#258);
#260=CIRCLE('',#259,4.5);
#261=EDGE_CURVE('',#199,#249,#260,.T.);
#262=ORIENTED_EDGE('',*,*,#261,.F.);
#263=ORIENTED_EDGE('',*,*,#219,.T.);
#264=CARTESIAN_POINT('',(-2.,-4.031128874,23.));
#265=VERTEX_POINT('',#264);
#266=CARTESIAN_POINT('',(0.,0.,23.));
#267=DIRECTION('',(0.,0.,1.));
#268=DIRECTION('',(1.,0.,-0.));
#269=AXIS2_PLACEMENT_3D('',#266,#267,#268);
#270=CIRCLE('',#269,4.5);
#271=EDGE_CURVE('',#265,#208,#270,.T.);
#272=ORIENTED_EDGE('',*,*,#271,.F.);
#273=CARTESIAN_POINT('',(-2.,-4.031128874,21.));
#274=VERTEX_POINT('',#273);
#275=CARTESIAN_POINT('',(-2.,-4.031128874,21.));
#276=DIRECTION('',(0.,0.,1.));
#277=VECTOR('',#276,2.);
#278=LINE('',#275,#277);
#279=EDGE_CURVE('',#274,#265,#278,.T.);
#280=ORIENTED_EDGE('',*,*,#279,.F.);
#281=CARTESIAN_POINT('',(0.,0.,21.));
#282=DIRECTION('',(0.,0.,1.));
#283=DIRECTION('',(1.,0.,-0.));
#284=AXIS2_PLACEMENT_3D('',#281,#282,#283);
#285=CIRCLE('',#284,4.5);
#286=EDGE_CURVE('',#232,#274,#285,.T.);
#287=ORIENTED_EDGE('',*,*,#286,.F.);
#288=ORIENTED_EDGE('',*,*,#237,.F.);
#289=CARTESIAN_POINT('',(4.5,-0.,-10.));
#290=VERTEX_POINT('',#289);
#291=CARTESIAN_POINT('',(0.,0.,-10.));
#292=DIRECTION('',(0.,0.,1.));
#293=DIRECTION('',(1.,0.,-0.));
#294=AXIS2_PLACEMENT_3D('',#291,#292,#293);
#295=CIRCLE('',#294,4.5);
#296=EDGE_CURVE('',#230,#290,#295,.T.);
#297=ORIENTED_EDGE('',*,*,#296,.T.);
#298=CARTESIAN_POINT('',(0.,0.,-10.));
#299=DIRECTION('',(0.,0.,1.));
#300=DIRECTION('',(1.,0.,-0.));
#301=AXIS2_PLACEMENT_3D('',#298,#299,#300);
#302=CIRCLE('',#301,4.5);
#303=EDGE_CURVE('',#290,#230,#302,.T.);
#304=ORIENTED_EDGE('',*,*,#303,.T.);
#305=EDGE_LOOP('',(#238,#245,#246,#247,#255,#262,#263,#272,#280,#287,#288,#297,#304));
#306=FACE_BOUND('',#305,.T.);
#307=ADVANCED_FACE('',(#306),#228,.T.);
#308=CARTESIAN_POINT('',(0.,0.,23.));
#309=DIRECTION('',(0.,0.,1.));
#310=DIRECTION('',(1.,0.,0.));
#311=AXIS2_PLACEMENT_3D('',#308,#309,#310);
#312=PLANE('',#311);
#313=ORIENTED_EDGE('',*,*,#100,.F.);
#314=CARTESIAN_POINT('',(-2.,-4.031128874,23.));
#315=DIRECTION('',(0.,1.,0.));
#316=VECTOR('',#315,3.39081645);
#317=LINE('',#314,#316);
#318=EDGE_CURVE('',#265,#86,#317,.T.);
#319=ORIENTED_EDGE('',*,*,#318,.F.);
#320=ORIENTED_EDGE('',*,*,#271,.T.);
#321=ORIENTED_EDGE('',*,*,#213,.F.);
#322=EDGE_LOOP('',(#313,#319,#320,#321));
#323=FACE_BOUND('',#322,.T.);
#324=ADVANCED_FACE('',(#323),#312,.T.);
#325=CARTESIAN_POINT('',(0.,0.,-10.));
#326=DIRECTION('',(0.,0.,1.));
#327=DIRECTION('',(1.,0.,0.));
#328=AXIS2_PLACEMENT_3D('',#325,#326,#327);
#329=PLANE('',#328);
#330=CARTESIAN_POINT('',(-3.6,0.,-10.));
#331=VERTEX_POINT('',#330);
#332=CARTESIAN_POINT('',(0.,0.,-10.));
#333=DIRECTION('',(0.,0.,-1.));
#334=DIRECTION('',(-1.,0.,0.));
#335=AXIS2_PLACEMENT_3D('',#332,#333,#334);
#336=CIRCLE('',#335,3.6);
#337=EDGE_CURVE('',#331,#331,#336,.T.);
#338=ORIENTED_EDGE('',*,*,#337,.F.);
#339=EDGE_LOOP('',(#338));
#340=FACE_BOUND('',#339,.T.);
#341=ORIENTED_EDGE('',*,*,#296,.F.);
#342=ORIENTED_EDGE('',*,*,#303,.F.);
#343=EDGE_LOOP('',(#341,#342));
#344=FACE_BOUND('',#343,.T.);
#345=ADVANCED_FACE('',(#340,#344),#329,.F.);
#346=CARTESIAN_POINT('',(-2.,0.,21.));
#347=DIRECTION('',(1.,0.,0.));
#348=DIRECTION('',(0.,0.,-1.));
#349=AXIS2_PLACEMENT_3D('',#346,#347,#348);
#350=PLANE('',#349);
#351=ORIENTED_EDGE('',*,*,#318,.T.);
#352=ORIENTED_EDGE('',*,*,#91,.T.);
#353=CARTESIAN_POINT('',(-2.,-4.031128874,21.));
#354=DIRECTION('',(0.,1.,0.));
#355=VECTOR('',#354,3.39081645);
#356=LINE('',#353,#355);
#357=EDGE_CURVE('',#274,#77,#356,.T.);
#358=ORIENTED_EDGE('',*,*,#357,.F.);
#359=ORIENTED_EDGE('',*,*,#279,.T.);
#360=EDGE_LOOP('',(#351,#352,#358,#359));
#361=FACE_BOUND('',#360,.T.);
#362=ADVANCED_FACE('',(#361),#350,.F.);
#363=CARTESIAN_POINT('',(0.,0.,21.));
#364=DIRECTION('',(0.,0.,1.));
#365=DIRECTION('',(1.,0.,0.));
#366=AXIS2_PLACEMENT_3D('',#363,#364,#365);
#367=PLANE('',#366);
#368=ORIENTED_EDGE('',*,*,#83,.F.);
#369=ORIENTED_EDGE('',*,*,#180,.T.);
#370=ORIENTED_EDGE('',*,*,#244,.T.);
#371=ORIENTED_EDGE('',*,*,#286,.T.);
#372=ORIENTED_EDGE('',*,*,#357,.T.);
#373=EDGE_LOOP('',(#368,#369,#370,#371,#372));
#374=FACE_BOUND('',#373,.T.);
#375=ADVANCED_FACE('',(#374),#367,.T.);
#376=CARTESIAN_POINT('',(2.,0.,21.));
#377=DIRECTION('',(-1.,0.,0.));
#378=DIRECTION('',(0.,0.,1.));
#379=AXIS2_PLACEMENT_3D('',#376,#377,#378);
#380=PLANE('',#379);
#381=ORIENTED_EDGE('',*,*,#149,.T.);
#382=ORIENTED_EDGE('',*,*,#57,.T.);
#383=CARTESIAN_POINT('',(2.,4.031128874,21.));
#384=DIRECTION('',(0.,-1.,0.));
#385=VECTOR('',#384,3.39081645);
#386=LINE('',#383,#385);
#387=EDGE_CURVE('',#249,#43,#386,.T.);
#388=ORIENTED_EDGE('',*,*,#387,.F.);
#389=ORIENTED_EDGE('',*,*,#254,.T.);
#390=EDGE_LOOP('',(#381,#382,#388,#389));
#391=FACE_BOUND('',#390,.T.);
#392=ADVANCED_FACE('',(#391),#380,.F.);
#393=CARTESIAN_POINT('',(0.,0.,21.));
#394=DIRECTION('',(0.,0.,1.));
#395=DIRECTION('',(1.,0.,0.));
#396=AXIS2_PLACEMENT_3D('',#393,#394,#395);
#397=PLANE('',#396);
#398=ORIENTED_EDGE('',*,*,#49,.F.);
#399=ORIENTED_EDGE('',*,*,#115,.F.);
#400=ORIENTED_EDGE('',*,*,#204,.T.);
#401=ORIENTED_EDGE('',*,*,#261,.T.);
#402=ORIENTED_EDGE('',*,*,#387,.T.);
#403=EDGE_LOOP('',(#398,#399,#400,#401,#402));
#404=FACE_BOUND('',#403,.T.);
#405=ADVANCED_FACE('',(#404),#397,.T.);
#406=CARTESIAN_POINT('',(0.,0.,-3.4));
#407=DIRECTION('',(0.,0.,-1.));
#408=DIRECTION('',(-1.,0.,0.));
#409=AXIS2_PLACEMENT_3D('',#406,#407,#408);
#410=CYLINDRICAL_SURFACE('',#409,3.6);
#411=CARTESIAN_POINT('',(-3.6,0.,-3.4));
#412=VERTEX_POINT('',#411);
#413=CARTESIAN_POINT('',(-3.6,0.,-10.));
#414=DIRECTION('',(-0.,-0.,1.));
#415=VECTOR('',#414,6.6);
#416=LINE('',#413,#415);
#417=EDGE_CURVE('',#331,#412,#416,.T.);
#418=ORIENTED_EDGE('',*,*,#417,.F.);
#419=ORIENTED_EDGE('',*,*,#337,.T.);
#420=ORIENTED_EDGE('',*,*,#417,.T.);
#421=CARTESIAN_POINT('',(0.,0.,-3.4));
#422=DIRECTION('',(0.,0.,-1.));
#423=DIRECTION('',(-1.,0.,0.));
#424=AXIS2_PLACEMENT_3D('',#421,#422,#423);
#425=CIRCLE('',#424,3.6);
#426=EDGE_CURVE('',#412,#412,#425,.T.);
#427=ORIENTED_EDGE('',*,*,#426,.F.);
#428=EDGE_LOOP('',(#418,#419,#420,#427));
#429=FACE_BOUND('',#428,.T.);
#430=ADVANCED_FACE('',(#429),#410,.F.);
#431=CARTESIAN_POINT('',(0.,0.,-3.4));
#432=DIRECTION('',(0.,0.,-1.));
#433=DIRECTION('',(-1.,0.,0.));
#434=AXIS2_PLACEMENT_3D('',#431,#432,#433);
#435=PLANE('',#434);
#436=ORIENTED_EDGE('',*,*,#426,.T.);
#437=EDGE_LOOP('',(#436));
#438=FACE_BOUND('',#437,.T.);
#439=ORIENTED_EDGE('',*,*,#125,.T.);
#440=ORIENTED_EDGE('',*,*,#132,.T.);
#441=EDGE_LOOP('',(#439,#440));
#442=FACE_BOUND('',#441,.T.);
#443=ADVANCED_FACE('',(#438,#442),#435,.T.);
#444=CLOSED_SHELL('',(#136,#168,#192,#223,#307,#324,#345,#362,#375,#392,#405,#430,#443));
#445=MANIFOLD_SOLID_BREP('Corps 01',#444);
#446=COLOUR_RGB('',0.494117647,0.494117647,0.525490224);
#447=FILL_AREA_STYLE_COLOUR('',#446);
#448=FILL_AREA_STYLE('',(#447));
#449=SURFACE_STYLE_FILL_AREA(#448);
#450=SURFACE_SIDE_STYLE('',(#449));
#451=SURFACE_STYLE_USAGE(.BOTH.,#450);
#452=PRESENTATION_STYLE_ASSIGNMENT((#451));
#26=STYLED_ITEM('',(#452),#445);
#16=SHAPE_REPRESENTATION('root',(#15),#10);
#17=ADVANCED_BREP_SHAPE_REPRESENTATION('root',(#445),#10);
#460=SHAPE_REPRESENTATION_RELATIONSHIP('','',#16,#17);
#461=APPLICATION_CONTEXT('data for automotive mechanical design processes');
#462=APPLICATION_PROTOCOL_DEFINITION('international standard','automotive_design',1994,#461);
#463=PRODUCT_CONTEXT('',#461,'mechanical');
#464=PRODUCT_DEFINITION_CONTEXT('part definition',#461,'design');
#24=PRODUCT('root','root','',(#463));
#465=PRODUCT_RELATED_PRODUCT_CATEGORY('part','',(#24));
#466=PRODUCT_DEFINITION_FORMATION_WITH_SPECIFIED_SOURCE('','',#24,.NOT_KNOWN.);
#25=PRODUCT_DEFINITION('design','',#466,#464);
#23=PRODUCT_DEFINITION_SHAPE('','',#25);
#467=SHAPE_DEFINITION_REPRESENTATION(#23,#16);
#11=DRAUGHTING_MODEL('',(),#10);
#1=MECHANICAL_DESIGN_GEOMETRIC_PRESENTATION_REPRESENTATION('',(#26),#10);
ENDSEC;
END-ISO-10303-21;
