ISO-10303-21;
HEADER;
/* Generated by software containing ST-Developer
 * from STEP Tools, Inc. (www.steptools.com) 
 */
/* OPTION: using custom schema-name function */

FILE_DESCRIPTION(
/* description */ (''),
/* implementation_level */ '2;1');

FILE_NAME(
/* name */ 'F90002311_A-BAGUE F.stp',
/* time_stamp */ '2024-09-18T15:57:40+02:00',
/* author */ (''),
/* organization */ (''),
/* preprocessor_version */ 'ST-DEVELOPER v18.1',
/* originating_system */ 'SIEMENS PLM Software NX 2000',
/* authorisation */ '');

FILE_SCHEMA (('AUTOMOTIVE_DESIGN { 1 0 10303 214 3 1 1 1 }'));
ENDSEC;

DATA;
#10=SHAPE_REPRESENTATION_RELATIONSHIP('None',
'relationship between F90002311_A-BAGUE F-None and F90002311_A-BAGUE F
-None',#22,#11);
#11=ADVANCED_BREP_SHAPE_REPRESENTATION('F90002311_A-BAGUE F-None',(#32),
#339);
#12=SHAPE_DEFINITION_REPRESENTATION(#13,#22);
#13=PRODUCT_DEFINITION_SHAPE('','',#14);
#14=PRODUCT_DEFINITION(' ','',#16,#15);
#15=PRODUCT_DEFINITION_CONTEXT('part definition',#21,'design');
#16=PRODUCT_DEFINITION_FORMATION_WITH_SPECIFIED_SOURCE(' ',' ',#18,
 .NOT_KNOWN.);
#17=PRODUCT_RELATED_PRODUCT_CATEGORY('part','',(#18));
#18=PRODUCT('F90002311_A-BAGUE F','F90002311_A-BAGUE F',' ',(#19));
#19=PRODUCT_CONTEXT(' ',#21,'mechanical');
#20=APPLICATION_PROTOCOL_DEFINITION('international standard',
'automotive_design',2010,#21);
#21=APPLICATION_CONTEXT(
'core data for automotive mechanical design processes');
#22=SHAPE_REPRESENTATION('F90002311_A-BAGUE F-None',(#199),#339);
#23=PRESENTATION_LAYER_ASSIGNMENT('1','Layer 1',(#32));
#24=STYLED_ITEM('',(#25),#32);
#25=PRESENTATION_STYLE_ASSIGNMENT((#26));
#26=SURFACE_STYLE_USAGE(.BOTH.,#27);
#27=SURFACE_SIDE_STYLE('',(#28));
#28=SURFACE_STYLE_FILL_AREA(#29);
#29=FILL_AREA_STYLE('',(#30));
#30=FILL_AREA_STYLE_COLOUR('',#31);
#31=COLOUR_RGB('medium steel',0.596078431372549,0.666666666666667,0.686274509803922);
#32=MANIFOLD_SOLID_BREP('',#33);
#33=CLOSED_SHELL('',(#45,#46,#47,#48,#49,#50,#51,#52,#53,#54,#55,#56,#57,
#58,#59));
#34=TOROIDAL_SURFACE('',#228,7.4,0.5);
#35=TOROIDAL_SURFACE('',#229,12.4,0.5);
#36=CONICAL_SURFACE('',#223,12.9,45.);
#37=CONICAL_SURFACE('',#224,14.4,45.0000000000001);
#38=CONICAL_SURFACE('',#225,6.50000000000009,45.);
#39=CONICAL_SURFACE('',#226,14.9,44.9999999999999);
#40=CONICAL_SURFACE('',#227,6.32264973081038,30.);
#41=PLANE('',#204);
#42=PLANE('',#210);
#43=PLANE('',#216);
#44=PLANE('',#222);
#45=ADVANCED_FACE('',(#64,#65),#60,.F.);
#46=ADVANCED_FACE('',(#66,#67),#41,.T.);
#47=ADVANCED_FACE('',(#68,#69),#61,.T.);
#48=ADVANCED_FACE('',(#70,#71),#42,.T.);
#49=ADVANCED_FACE('',(#72,#73),#62,.F.);
#50=ADVANCED_FACE('',(#74,#75),#43,.T.);
#51=ADVANCED_FACE('',(#76,#77),#63,.T.);
#52=ADVANCED_FACE('',(#78,#79),#44,.T.);
#53=ADVANCED_FACE('',(#80,#81),#36,.F.);
#54=ADVANCED_FACE('',(#82,#83),#37,.T.);
#55=ADVANCED_FACE('',(#84,#85),#38,.F.);
#56=ADVANCED_FACE('',(#86,#87),#39,.T.);
#57=ADVANCED_FACE('',(#88,#89),#40,.T.);
#58=ADVANCED_FACE('',(#90,#91),#34,.F.);
#59=ADVANCED_FACE('',(#92,#93),#35,.F.);
#60=CYLINDRICAL_SURFACE('',#202,6.00000000000009);
#61=CYLINDRICAL_SURFACE('',#207,6.9);
#62=CYLINDRICAL_SURFACE('',#213,12.9);
#63=CYLINDRICAL_SURFACE('',#219,14.9);
#64=FACE_BOUND('',#94,.T.);
#65=FACE_BOUND('',#95,.T.);
#66=FACE_BOUND('',#96,.T.);
#67=FACE_BOUND('',#97,.T.);
#68=FACE_BOUND('',#98,.T.);
#69=FACE_BOUND('',#99,.T.);
#70=FACE_BOUND('',#100,.T.);
#71=FACE_BOUND('',#101,.T.);
#72=FACE_BOUND('',#102,.T.);
#73=FACE_BOUND('',#103,.T.);
#74=FACE_BOUND('',#104,.T.);
#75=FACE_BOUND('',#105,.T.);
#76=FACE_BOUND('',#106,.T.);
#77=FACE_BOUND('',#107,.T.);
#78=FACE_BOUND('',#108,.T.);
#79=FACE_BOUND('',#109,.T.);
#80=FACE_BOUND('',#110,.T.);
#81=FACE_BOUND('',#111,.T.);
#82=FACE_BOUND('',#112,.T.);
#83=FACE_BOUND('',#113,.T.);
#84=FACE_BOUND('',#114,.T.);
#85=FACE_BOUND('',#115,.T.);
#86=FACE_BOUND('',#116,.T.);
#87=FACE_BOUND('',#117,.T.);
#88=FACE_BOUND('',#118,.T.);
#89=FACE_BOUND('',#119,.T.);
#90=FACE_BOUND('',#120,.T.);
#91=FACE_BOUND('',#121,.T.);
#92=FACE_BOUND('',#122,.T.);
#93=FACE_BOUND('',#123,.T.);
#94=EDGE_LOOP('',(#124));
#95=EDGE_LOOP('',(#125));
#96=EDGE_LOOP('',(#126));
#97=EDGE_LOOP('',(#127));
#98=EDGE_LOOP('',(#128));
#99=EDGE_LOOP('',(#129));
#100=EDGE_LOOP('',(#130));
#101=EDGE_LOOP('',(#131));
#102=EDGE_LOOP('',(#132));
#103=EDGE_LOOP('',(#133));
#104=EDGE_LOOP('',(#134));
#105=EDGE_LOOP('',(#135));
#106=EDGE_LOOP('',(#136));
#107=EDGE_LOOP('',(#137));
#108=EDGE_LOOP('',(#138));
#109=EDGE_LOOP('',(#139));
#110=EDGE_LOOP('',(#140));
#111=EDGE_LOOP('',(#141));
#112=EDGE_LOOP('',(#142));
#113=EDGE_LOOP('',(#143));
#114=EDGE_LOOP('',(#144));
#115=EDGE_LOOP('',(#145));
#116=EDGE_LOOP('',(#146));
#117=EDGE_LOOP('',(#147));
#118=EDGE_LOOP('',(#148));
#119=EDGE_LOOP('',(#149));
#120=EDGE_LOOP('',(#150));
#121=EDGE_LOOP('',(#151));
#122=EDGE_LOOP('',(#152));
#123=EDGE_LOOP('',(#153));
#124=ORIENTED_EDGE('',*,*,#169,.T.);
#125=ORIENTED_EDGE('',*,*,#170,.T.);
#126=ORIENTED_EDGE('',*,*,#171,.T.);
#127=ORIENTED_EDGE('',*,*,#170,.F.);
#128=ORIENTED_EDGE('',*,*,#172,.T.);
#129=ORIENTED_EDGE('',*,*,#173,.T.);
#130=ORIENTED_EDGE('',*,*,#174,.T.);
#131=ORIENTED_EDGE('',*,*,#175,.T.);
#132=ORIENTED_EDGE('',*,*,#176,.T.);
#133=ORIENTED_EDGE('',*,*,#177,.T.);
#134=ORIENTED_EDGE('',*,*,#178,.T.);
#135=ORIENTED_EDGE('',*,*,#179,.T.);
#136=ORIENTED_EDGE('',*,*,#180,.T.);
#137=ORIENTED_EDGE('',*,*,#181,.T.);
#138=ORIENTED_EDGE('',*,*,#182,.T.);
#139=ORIENTED_EDGE('',*,*,#183,.T.);
#140=ORIENTED_EDGE('',*,*,#178,.F.);
#141=ORIENTED_EDGE('',*,*,#177,.F.);
#142=ORIENTED_EDGE('',*,*,#180,.F.);
#143=ORIENTED_EDGE('',*,*,#179,.F.);
#144=ORIENTED_EDGE('',*,*,#169,.F.);
#145=ORIENTED_EDGE('',*,*,#182,.F.);
#146=ORIENTED_EDGE('',*,*,#183,.F.);
#147=ORIENTED_EDGE('',*,*,#181,.F.);
#148=ORIENTED_EDGE('',*,*,#173,.F.);
#149=ORIENTED_EDGE('',*,*,#171,.F.);
#150=ORIENTED_EDGE('',*,*,#174,.F.);
#151=ORIENTED_EDGE('',*,*,#172,.F.);
#152=ORIENTED_EDGE('',*,*,#176,.F.);
#153=ORIENTED_EDGE('',*,*,#175,.F.);
#154=VERTEX_POINT('',#294);
#155=VERTEX_POINT('',#296);
#156=VERTEX_POINT('',#299);
#157=VERTEX_POINT('',#302);
#158=VERTEX_POINT('',#304);
#159=VERTEX_POINT('',#307);
#160=VERTEX_POINT('',#309);
#161=VERTEX_POINT('',#312);
#162=VERTEX_POINT('',#314);
#163=VERTEX_POINT('',#317);
#164=VERTEX_POINT('',#319);
#165=VERTEX_POINT('',#322);
#166=VERTEX_POINT('',#324);
#167=VERTEX_POINT('',#327);
#168=VERTEX_POINT('',#329);
#169=EDGE_CURVE('',#154,#154,#184,.T.);
#170=EDGE_CURVE('',#155,#155,#185,.T.);
#171=EDGE_CURVE('',#156,#156,#186,.T.);
#172=EDGE_CURVE('',#157,#157,#187,.T.);
#173=EDGE_CURVE('',#158,#158,#188,.T.);
#174=EDGE_CURVE('',#159,#159,#189,.T.);
#175=EDGE_CURVE('',#160,#160,#190,.T.);
#176=EDGE_CURVE('',#161,#161,#191,.T.);
#177=EDGE_CURVE('',#162,#162,#192,.T.);
#178=EDGE_CURVE('',#163,#163,#193,.T.);
#179=EDGE_CURVE('',#164,#164,#194,.T.);
#180=EDGE_CURVE('',#165,#165,#195,.T.);
#181=EDGE_CURVE('',#166,#166,#196,.T.);
#182=EDGE_CURVE('',#167,#167,#197,.T.);
#183=EDGE_CURVE('',#168,#168,#198,.T.);
#184=CIRCLE('',#200,6.00000000000009);
#185=CIRCLE('',#201,6.00000000000019);
#186=CIRCLE('',#203,6.32264973081038);
#187=CIRCLE('',#205,6.9);
#188=CIRCLE('',#206,6.9);
#189=CIRCLE('',#208,7.4);
#190=CIRCLE('',#209,12.4);
#191=CIRCLE('',#211,12.9);
#192=CIRCLE('',#212,12.9);
#193=CIRCLE('',#214,13.4);
#194=CIRCLE('',#215,14.4);
#195=CIRCLE('',#217,14.9);
#196=CIRCLE('',#218,14.9);
#197=CIRCLE('',#220,6.50000000000009);
#198=CIRCLE('',#221,14.4);
#199=AXIS2_PLACEMENT_3D('',#292,#230,#231);
#200=AXIS2_PLACEMENT_3D('',#293,#232,#233);
#201=AXIS2_PLACEMENT_3D('',#295,#234,#235);
#202=AXIS2_PLACEMENT_3D('',#297,#236,#237);
#203=AXIS2_PLACEMENT_3D('',#298,#238,#239);
#204=AXIS2_PLACEMENT_3D('',#300,#240,#241);
#205=AXIS2_PLACEMENT_3D('',#301,#242,#243);
#206=AXIS2_PLACEMENT_3D('',#303,#244,#245);
#207=AXIS2_PLACEMENT_3D('',#305,#246,#247);
#208=AXIS2_PLACEMENT_3D('',#306,#248,#249);
#209=AXIS2_PLACEMENT_3D('',#308,#250,#251);
#210=AXIS2_PLACEMENT_3D('',#310,#252,#253);
#211=AXIS2_PLACEMENT_3D('',#311,#254,#255);
#212=AXIS2_PLACEMENT_3D('',#313,#256,#257);
#213=AXIS2_PLACEMENT_3D('',#315,#258,#259);
#214=AXIS2_PLACEMENT_3D('',#316,#260,#261);
#215=AXIS2_PLACEMENT_3D('',#318,#262,#263);
#216=AXIS2_PLACEMENT_3D('',#320,#264,#265);
#217=AXIS2_PLACEMENT_3D('',#321,#266,#267);
#218=AXIS2_PLACEMENT_3D('',#323,#268,#269);
#219=AXIS2_PLACEMENT_3D('',#325,#270,#271);
#220=AXIS2_PLACEMENT_3D('',#326,#272,#273);
#221=AXIS2_PLACEMENT_3D('',#328,#274,#275);
#222=AXIS2_PLACEMENT_3D('',#330,#276,#277);
#223=AXIS2_PLACEMENT_3D('',#331,#278,#279);
#224=AXIS2_PLACEMENT_3D('',#332,#280,#281);
#225=AXIS2_PLACEMENT_3D('',#333,#282,#283);
#226=AXIS2_PLACEMENT_3D('',#334,#284,#285);
#227=AXIS2_PLACEMENT_3D('',#335,#286,#287);
#228=AXIS2_PLACEMENT_3D('',#336,#288,#289);
#229=AXIS2_PLACEMENT_3D('',#337,#290,#291);
#230=DIRECTION('',(0.,0.,1.));
#231=DIRECTION('',(1.,0.,0.));
#232=DIRECTION('',(0.,1.,0.));
#233=DIRECTION('',(0.,0.,1.));
#234=DIRECTION('',(0.,-1.,0.));
#235=DIRECTION('',(0.,0.,-1.));
#236=DIRECTION('',(0.,-1.,0.));
#237=DIRECTION('',(0.,0.,-1.));
#238=DIRECTION('',(0.,-1.,0.));
#239=DIRECTION('',(0.,0.,-1.));
#240=DIRECTION('',(0.,-1.,0.));
#241=DIRECTION('',(0.,0.,-1.));
#242=DIRECTION('',(0.,-1.,0.));
#243=DIRECTION('',(0.,0.,-1.));
#244=DIRECTION('',(0.,1.,0.));
#245=DIRECTION('',(0.,0.,-1.));
#246=DIRECTION('',(0.,-1.,0.));
#247=DIRECTION('',(0.,0.,-1.));
#248=DIRECTION('',(0.,1.,0.));
#249=DIRECTION('',(0.,0.,-1.));
#250=DIRECTION('',(0.,-1.,0.));
#251=DIRECTION('',(0.,0.,-1.));
#252=DIRECTION('',(0.,-1.,0.));
#253=DIRECTION('',(0.,0.,-1.));
#254=DIRECTION('',(0.,1.,0.));
#255=DIRECTION('',(0.,0.,-1.));
#256=DIRECTION('',(0.,-1.,0.));
#257=DIRECTION('',(0.,0.,-1.));
#258=DIRECTION('',(0.,-1.,0.));
#259=DIRECTION('',(0.,0.,-1.));
#260=DIRECTION('',(0.,1.,0.));
#261=DIRECTION('',(0.,0.,-1.));
#262=DIRECTION('',(0.,-1.,0.));
#263=DIRECTION('',(0.,0.,-1.));
#264=DIRECTION('',(0.,-1.,0.));
#265=DIRECTION('',(0.,0.,-1.));
#266=DIRECTION('',(0.,1.,0.));
#267=DIRECTION('',(0.,0.,-1.));
#268=DIRECTION('',(0.,-1.,0.));
#269=DIRECTION('',(0.,0.,1.));
#270=DIRECTION('',(0.,-1.,0.));
#271=DIRECTION('',(0.,0.,-1.));
#272=DIRECTION('',(0.,-1.,0.));
#273=DIRECTION('',(0.,0.,1.));
#274=DIRECTION('',(0.,1.,0.));
#275=DIRECTION('',(0.,0.,1.));
#276=DIRECTION('',(0.,1.,0.));
#277=DIRECTION('',(0.,0.,1.));
#278=DIRECTION('',(0.,-1.,0.));
#279=DIRECTION('',(0.,-5.48041773435263E-17,-1.));
#280=DIRECTION('',(0.,1.,0.));
#281=DIRECTION('',(0.,1.71009806385726E-18,1.));
#282=DIRECTION('',(0.,1.,0.));
#283=DIRECTION('',(0.,-9.65171531591666E-17,1.));
#284=DIRECTION('',(0.,-1.,0.));
#285=DIRECTION('',(0.,-3.76036224962951E-17,-1.));
#286=DIRECTION('',(0.,1.,0.));
#287=DIRECTION('',(0.,1.10154086083281E-19,1.));
#288=DIRECTION('',(0.,-1.,0.));
#289=DIRECTION('',(0.,0.,-1.));
#290=DIRECTION('',(0.,-1.,0.));
#291=DIRECTION('',(0.,0.,-1.));
#292=CARTESIAN_POINT('',(0.,0.,0.));
#293=CARTESIAN_POINT('',(0.,16.5,0.));
#294=CARTESIAN_POINT('',(0.,16.5,6.00000000000009));
#295=CARTESIAN_POINT('',(0.,0.,0.));
#296=CARTESIAN_POINT('',(0.,0.,-6.00000000000019));
#297=CARTESIAN_POINT('',(0.,0.,0.));
#298=CARTESIAN_POINT('',(0.,-6.42939569552418E-17,0.));
#299=CARTESIAN_POINT('',(0.,-6.42939569552418E-17,-6.32264973081038));
#300=CARTESIAN_POINT('',(6.00000000000019,-6.42939569552418E-17,0.));
#301=CARTESIAN_POINT('',(0.,9.5,0.));
#302=CARTESIAN_POINT('',(0.,9.5,-6.9));
#303=CARTESIAN_POINT('',(0.,1.,0.));
#304=CARTESIAN_POINT('',(0.,1.,-6.9));
#305=CARTESIAN_POINT('',(0.,0.,0.));
#306=CARTESIAN_POINT('',(0.,10.,0.));
#307=CARTESIAN_POINT('',(0.,10.,-7.4));
#308=CARTESIAN_POINT('',(0.,10.,0.));
#309=CARTESIAN_POINT('',(0.,10.,-12.4));
#310=CARTESIAN_POINT('',(6.9,10.,0.));
#311=CARTESIAN_POINT('',(0.,9.5,0.));
#312=CARTESIAN_POINT('',(0.,9.5,-12.9));
#313=CARTESIAN_POINT('',(0.,6.50000000000001,0.));
#314=CARTESIAN_POINT('',(0.,6.50000000000001,-12.9));
#315=CARTESIAN_POINT('',(0.,0.,0.));
#316=CARTESIAN_POINT('',(0.,6.,0.));
#317=CARTESIAN_POINT('',(0.,6.,-13.4));
#318=CARTESIAN_POINT('',(0.,6.,0.));
#319=CARTESIAN_POINT('',(0.,6.,-14.4));
#320=CARTESIAN_POINT('',(12.9,6.,0.));
#321=CARTESIAN_POINT('',(0.,6.5,0.));
#322=CARTESIAN_POINT('',(0.,6.5,-14.9));
#323=CARTESIAN_POINT('',(0.,16.5,0.));
#324=CARTESIAN_POINT('',(0.,16.5,14.9));
#325=CARTESIAN_POINT('',(0.,0.,0.));
#326=CARTESIAN_POINT('',(0.,17.,0.));
#327=CARTESIAN_POINT('',(0.,17.,6.50000000000009));
#328=CARTESIAN_POINT('',(0.,17.,0.));
#329=CARTESIAN_POINT('',(0.,17.,14.4));
#330=CARTESIAN_POINT('',(14.9,17.,0.));
#331=CARTESIAN_POINT('',(0.,6.50000000000001,0.));
#332=CARTESIAN_POINT('',(0.,6.,0.));
#333=CARTESIAN_POINT('',(0.,17.,0.));
#334=CARTESIAN_POINT('',(0.,16.5,0.));
#335=CARTESIAN_POINT('',(0.,-6.42939569552418E-17,0.));
#336=CARTESIAN_POINT('',(0.,9.5,0.));
#337=CARTESIAN_POINT('',(0.,9.5,0.));
#338=MECHANICAL_DESIGN_GEOMETRIC_PRESENTATION_REPRESENTATION('',(#24),#339);
#339=(
GEOMETRIC_REPRESENTATION_CONTEXT(3)
GLOBAL_UNCERTAINTY_ASSIGNED_CONTEXT((#340))
GLOBAL_UNIT_ASSIGNED_CONTEXT((#346,#342,#341))
REPRESENTATION_CONTEXT('F90002311_A-BAGUE F','TOP_LEVEL_ASSEMBLY_PART')
);
#340=UNCERTAINTY_MEASURE_WITH_UNIT(LENGTH_MEASURE(2.E-5),#346,
'DISTANCE_ACCURACY_VALUE','Maximum Tolerance applied to model');
#341=(
NAMED_UNIT(*)
SI_UNIT($,.STERADIAN.)
SOLID_ANGLE_UNIT()
);
#342=(
CONVERSION_BASED_UNIT('DEGREE',#344)
NAMED_UNIT(#343)
PLANE_ANGLE_UNIT()
);
#343=DIMENSIONAL_EXPONENTS(0.,0.,0.,0.,0.,0.,0.);
#344=PLANE_ANGLE_MEASURE_WITH_UNIT(PLANE_ANGLE_MEASURE(0.0174532925),#345);
#345=(
NAMED_UNIT(*)
PLANE_ANGLE_UNIT()
SI_UNIT($,.RADIAN.)
);
#346=(
LENGTH_UNIT()
NAMED_UNIT(*)
SI_UNIT(.MILLI.,.METRE.)
);
ENDSEC;
END-ISO-10303-21;
