ISO-10303-21;
HEADER;
/* Generated by software containing ST-Developer
 * from STEP Tools, Inc. (www.steptools.com) 
 */

FILE_DESCRIPTION(
/* description */ (''),
/* implementation_level */ '2;1');

FILE_NAME(
/* name */ 'Chasse ejecteur v52.step',
/* time_stamp */ '2024-09-19T10:10:38+02:00',
/* author */ (''),
/* organization */ (''),
/* preprocessor_version */ 'ST-DEVELOPER v20',
/* originating_system */ 'Autodesk Translation Framework v13.14.0.145',

/* authorisation */ '');

FILE_SCHEMA (('AUTOMOTIVE_DESIGN { 1 0 10303 214 3 1 1 }'));
ENDSEC;

DATA;
#10=MECHANICAL_DESIGN_GEOMETRIC_PRESENTATION_REPRESENTATION('',(#13),#274);
#11=SHAPE_REPRESENTATION_RELATIONSHIP('SRR','None',#280,#12);
#12=ADVANCED_BREP_SHAPE_REPRESENTATION('',(#14),#273);
#13=STYLED_ITEM('',(#289),#14);
#14=MANIFOLD_SOLID_BREP('Body31',#166);
#15=PLANE('',#171);
#16=PLANE('',#173);
#17=PLANE('',#176);
#18=PLANE('',#177);
#19=PLANE('',#178);
#20=PLANE('',#179);
#21=PLANE('',#180);
#22=FACE_OUTER_BOUND('',#31,.T.);
#23=FACE_OUTER_BOUND('',#32,.T.);
#24=FACE_OUTER_BOUND('',#33,.T.);
#25=FACE_OUTER_BOUND('',#34,.T.);
#26=FACE_OUTER_BOUND('',#35,.T.);
#27=FACE_OUTER_BOUND('',#36,.T.);
#28=FACE_OUTER_BOUND('',#37,.T.);
#29=FACE_OUTER_BOUND('',#38,.T.);
#30=FACE_OUTER_BOUND('',#39,.T.);
#31=EDGE_LOOP('',(#113,#114,#115,#116));
#32=EDGE_LOOP('',(#117,#118,#119,#120,#121,#122,#123));
#33=EDGE_LOOP('',(#124,#125,#126,#127));
#34=EDGE_LOOP('',(#128,#129,#130,#131));
#35=EDGE_LOOP('',(#132,#133,#134,#135));
#36=EDGE_LOOP('',(#136,#137,#138,#139));
#37=EDGE_LOOP('',(#140,#141,#142,#143));
#38=EDGE_LOOP('',(#144,#145,#146,#147));
#39=EDGE_LOOP('',(#148,#149,#150,#151,#152,#153,#154));
#40=LINE('',#232,#57);
#41=LINE('',#235,#58);
#42=LINE('',#238,#59);
#43=LINE('',#242,#60);
#44=LINE('',#244,#61);
#45=LINE('',#246,#62);
#46=LINE('',#247,#63);
#47=LINE('',#250,#64);
#48=LINE('',#251,#65);
#49=LINE('',#255,#66);
#50=LINE('',#258,#67);
#51=LINE('',#260,#68);
#52=LINE('',#261,#69);
#53=LINE('',#264,#70);
#54=LINE('',#265,#71);
#55=LINE('',#267,#72);
#56=LINE('',#269,#73);
#57=VECTOR('',#187,10.);
#58=VECTOR('',#190,10.);
#59=VECTOR('',#193,10.);
#60=VECTOR('',#196,10.);
#61=VECTOR('',#197,10.);
#62=VECTOR('',#198,10.);
#63=VECTOR('',#199,10.);
#64=VECTOR('',#202,10.);
#65=VECTOR('',#203,10.);
#66=VECTOR('',#208,10.);
#67=VECTOR('',#211,10.);
#68=VECTOR('',#212,10.);
#69=VECTOR('',#213,10.);
#70=VECTOR('',#216,10.);
#71=VECTOR('',#217,10.);
#72=VECTOR('',#220,10.);
#73=VECTOR('',#223,10.);
#74=CIRCLE('',#169,50.);
#75=CIRCLE('',#170,50.);
#76=CIRCLE('',#172,2.);
#77=CIRCLE('',#175,2.);
#78=VERTEX_POINT('',#228);
#79=VERTEX_POINT('',#229);
#80=VERTEX_POINT('',#231);
#81=VERTEX_POINT('',#233);
#82=VERTEX_POINT('',#237);
#83=VERTEX_POINT('',#239);
#84=VERTEX_POINT('',#241);
#85=VERTEX_POINT('',#243);
#86=VERTEX_POINT('',#245);
#87=VERTEX_POINT('',#249);
#88=VERTEX_POINT('',#253);
#89=VERTEX_POINT('',#257);
#90=VERTEX_POINT('',#259);
#91=VERTEX_POINT('',#263);
#92=EDGE_CURVE('',#78,#79,#74,.T.);
#93=EDGE_CURVE('',#79,#80,#40,.T.);
#94=EDGE_CURVE('',#80,#81,#75,.T.);
#95=EDGE_CURVE('',#81,#78,#41,.T.);
#96=EDGE_CURVE('',#80,#82,#42,.T.);
#97=EDGE_CURVE('',#83,#82,#76,.T.);
#98=EDGE_CURVE('',#83,#84,#43,.T.);
#99=EDGE_CURVE('',#84,#85,#44,.T.);
#100=EDGE_CURVE('',#85,#86,#45,.T.);
#101=EDGE_CURVE('',#86,#81,#46,.T.);
#102=EDGE_CURVE('',#87,#79,#47,.T.);
#103=EDGE_CURVE('',#82,#87,#48,.T.);
#104=EDGE_CURVE('',#87,#88,#77,.T.);
#105=EDGE_CURVE('',#88,#83,#49,.T.);
#106=EDGE_CURVE('',#89,#84,#50,.T.);
#107=EDGE_CURVE('',#90,#89,#51,.T.);
#108=EDGE_CURVE('',#85,#90,#52,.T.);
#109=EDGE_CURVE('',#91,#90,#53,.T.);
#110=EDGE_CURVE('',#86,#91,#54,.T.);
#111=EDGE_CURVE('',#78,#91,#55,.T.);
#112=EDGE_CURVE('',#89,#88,#56,.T.);
#113=ORIENTED_EDGE('',*,*,#92,.T.);
#114=ORIENTED_EDGE('',*,*,#93,.T.);
#115=ORIENTED_EDGE('',*,*,#94,.T.);
#116=ORIENTED_EDGE('',*,*,#95,.T.);
#117=ORIENTED_EDGE('',*,*,#94,.F.);
#118=ORIENTED_EDGE('',*,*,#96,.T.);
#119=ORIENTED_EDGE('',*,*,#97,.F.);
#120=ORIENTED_EDGE('',*,*,#98,.T.);
#121=ORIENTED_EDGE('',*,*,#99,.T.);
#122=ORIENTED_EDGE('',*,*,#100,.T.);
#123=ORIENTED_EDGE('',*,*,#101,.T.);
#124=ORIENTED_EDGE('',*,*,#93,.F.);
#125=ORIENTED_EDGE('',*,*,#102,.F.);
#126=ORIENTED_EDGE('',*,*,#103,.F.);
#127=ORIENTED_EDGE('',*,*,#96,.F.);
#128=ORIENTED_EDGE('',*,*,#104,.T.);
#129=ORIENTED_EDGE('',*,*,#105,.T.);
#130=ORIENTED_EDGE('',*,*,#97,.T.);
#131=ORIENTED_EDGE('',*,*,#103,.T.);
#132=ORIENTED_EDGE('',*,*,#106,.F.);
#133=ORIENTED_EDGE('',*,*,#107,.F.);
#134=ORIENTED_EDGE('',*,*,#108,.F.);
#135=ORIENTED_EDGE('',*,*,#99,.F.);
#136=ORIENTED_EDGE('',*,*,#108,.T.);
#137=ORIENTED_EDGE('',*,*,#109,.F.);
#138=ORIENTED_EDGE('',*,*,#110,.F.);
#139=ORIENTED_EDGE('',*,*,#100,.F.);
#140=ORIENTED_EDGE('',*,*,#95,.F.);
#141=ORIENTED_EDGE('',*,*,#101,.F.);
#142=ORIENTED_EDGE('',*,*,#110,.T.);
#143=ORIENTED_EDGE('',*,*,#111,.F.);
#144=ORIENTED_EDGE('',*,*,#105,.F.);
#145=ORIENTED_EDGE('',*,*,#112,.F.);
#146=ORIENTED_EDGE('',*,*,#106,.T.);
#147=ORIENTED_EDGE('',*,*,#98,.F.);
#148=ORIENTED_EDGE('',*,*,#92,.F.);
#149=ORIENTED_EDGE('',*,*,#111,.T.);
#150=ORIENTED_EDGE('',*,*,#109,.T.);
#151=ORIENTED_EDGE('',*,*,#107,.T.);
#152=ORIENTED_EDGE('',*,*,#112,.T.);
#153=ORIENTED_EDGE('',*,*,#104,.F.);
#154=ORIENTED_EDGE('',*,*,#102,.T.);
#155=CYLINDRICAL_SURFACE('',#168,50.);
#156=CYLINDRICAL_SURFACE('',#174,2.);
#157=ADVANCED_FACE('',(#22),#155,.T.);
#158=ADVANCED_FACE('',(#23),#15,.T.);
#159=ADVANCED_FACE('',(#24),#16,.T.);
#160=ADVANCED_FACE('',(#25),#156,.T.);
#161=ADVANCED_FACE('',(#26),#17,.T.);
#162=ADVANCED_FACE('',(#27),#18,.T.);
#163=ADVANCED_FACE('',(#28),#19,.T.);
#164=ADVANCED_FACE('',(#29),#20,.T.);
#165=ADVANCED_FACE('',(#30),#21,.T.);
#166=CLOSED_SHELL('',(#157,#158,#159,#160,#161,#162,#163,#164,#165));
#167=AXIS2_PLACEMENT_3D('',#226,#181,#182);
#168=AXIS2_PLACEMENT_3D('',#227,#183,#184);
#169=AXIS2_PLACEMENT_3D('',#230,#185,#186);
#170=AXIS2_PLACEMENT_3D('',#234,#188,#189);
#171=AXIS2_PLACEMENT_3D('',#236,#191,#192);
#172=AXIS2_PLACEMENT_3D('',#240,#194,#195);
#173=AXIS2_PLACEMENT_3D('',#248,#200,#201);
#174=AXIS2_PLACEMENT_3D('',#252,#204,#205);
#175=AXIS2_PLACEMENT_3D('',#254,#206,#207);
#176=AXIS2_PLACEMENT_3D('',#256,#209,#210);
#177=AXIS2_PLACEMENT_3D('',#262,#214,#215);
#178=AXIS2_PLACEMENT_3D('',#266,#218,#219);
#179=AXIS2_PLACEMENT_3D('',#268,#221,#222);
#180=AXIS2_PLACEMENT_3D('',#270,#224,#225);
#181=DIRECTION('axis',(0.,0.,1.));
#182=DIRECTION('refdir',(1.,0.,0.));
#183=DIRECTION('center_axis',(0.,1.,0.));
#184=DIRECTION('ref_axis',(-0.0261769483078729,0.,0.999657324975557));
#185=DIRECTION('center_axis',(0.,-1.,0.));
#186=DIRECTION('ref_axis',(-0.0261769483078729,0.,0.999657324975557));
#187=DIRECTION('',(0.,-1.,0.));
#188=DIRECTION('center_axis',(0.,1.,0.));
#189=DIRECTION('ref_axis',(-0.0261769483078729,0.,0.999657324975557));
#190=DIRECTION('',(0.,1.,0.));
#191=DIRECTION('center_axis',(0.,-1.,0.));
#192=DIRECTION('ref_axis',(0.,0.,-1.));
#193=DIRECTION('',(-0.998629534754574,0.,-0.0523359562429444));
#194=DIRECTION('center_axis',(0.,1.,0.));
#195=DIRECTION('ref_axis',(-0.725374371012289,0.,0.688354575693753));
#196=DIRECTION('',(0.,0.,-1.));
#197=DIRECTION('',(1.,0.,0.));
#198=DIRECTION('',(4.90029472938002E-15,0.,1.));
#199=DIRECTION('',(-1.,0.,8.88178419700125E-16));
#200=DIRECTION('center_axis',(-0.0523359562429444,0.,0.998629534754574));
#201=DIRECTION('ref_axis',(0.998629534754574,0.,0.0523359562429444));
#202=DIRECTION('',(0.998629534754574,0.,0.0523359562429444));
#203=DIRECTION('',(0.,1.,0.));
#204=DIRECTION('center_axis',(0.,1.,0.));
#205=DIRECTION('ref_axis',(-0.725374371012289,0.,0.688354575693753));
#206=DIRECTION('center_axis',(0.,-1.,0.));
#207=DIRECTION('ref_axis',(-0.725374371012289,0.,0.688354575693753));
#208=DIRECTION('',(0.,-1.,0.));
#209=DIRECTION('center_axis',(0.,0.,-1.));
#210=DIRECTION('ref_axis',(-1.,0.,0.));
#211=DIRECTION('',(0.,-1.,0.));
#212=DIRECTION('',(-1.,0.,0.));
#213=DIRECTION('',(0.,1.,0.));
#214=DIRECTION('center_axis',(1.,0.,-4.90029472938002E-15));
#215=DIRECTION('ref_axis',(-4.90029472938002E-15,0.,-1.));
#216=DIRECTION('',(-4.90029472938002E-15,0.,-1.));
#217=DIRECTION('',(0.,1.,0.));
#218=DIRECTION('center_axis',(8.88178419700125E-16,0.,1.));
#219=DIRECTION('ref_axis',(1.,0.,-8.88178419700125E-16));
#220=DIRECTION('',(1.,0.,-8.88178419700125E-16));
#221=DIRECTION('center_axis',(-1.,0.,0.));
#222=DIRECTION('ref_axis',(0.,0.,1.));
#223=DIRECTION('',(0.,0.,1.));
#224=DIRECTION('center_axis',(0.,1.,0.));
#225=DIRECTION('ref_axis',(0.,0.,1.));
#226=CARTESIAN_POINT('',(0.,0.,0.));
#227=CARTESIAN_POINT('Origin',(177.591382696286,0.,-87.1003466901903));
#228=CARTESIAN_POINT('',(177.591382696286,5.,-37.1003466901903));
#229=CARTESIAN_POINT('',(174.974584884138,5.,-37.1688699524616));
#230=CARTESIAN_POINT('Origin',(177.591382696286,5.,-87.1003466901903));
#231=CARTESIAN_POINT('',(174.974584884138,-5.,-37.1688699524616));
#232=CARTESIAN_POINT('',(174.974584884138,0.,-37.1688699524616));
#233=CARTESIAN_POINT('',(177.591382696286,-5.,-37.1003466901903));
#234=CARTESIAN_POINT('Origin',(177.591382696286,-5.,-87.1003466901903));
#235=CARTESIAN_POINT('',(177.591382696286,0.,-37.1003466901903));
#236=CARTESIAN_POINT('Origin',(171.282086617826,-5.,-44.3503466901903));
#237=CARTESIAN_POINT('',(68.1774147053404,-5.,-42.7658724752455));
#238=CARTESIAN_POINT('',(66.2820866178262,-5.,-42.8652024113249));
#239=CARTESIAN_POINT('',(66.2820866178262,-5.,-44.7631315447547));
#240=CARTESIAN_POINT('Origin',(68.2820866178263,-5.,-44.7631315447547));
#241=CARTESIAN_POINT('',(66.2820866178262,-5.,-51.6003466901904));
#242=CARTESIAN_POINT('',(66.2820866178262,-5.,-51.6003466901904));
#243=CARTESIAN_POINT('',(276.282086617826,-5.,-51.6003466901904));
#244=CARTESIAN_POINT('',(276.282086617826,-5.,-51.6003466901904));
#245=CARTESIAN_POINT('',(276.282086617826,-5.,-37.1003466901904));
#246=CARTESIAN_POINT('',(276.282086617826,-5.,-37.1003466901904));
#247=CARTESIAN_POINT('',(176.282086617826,-5.,-37.1003466901903));
#248=CARTESIAN_POINT('Origin',(66.2820866178262,0.,-42.8652024113249));
#249=CARTESIAN_POINT('',(68.1774147053404,5.,-42.7658724752455));
#250=CARTESIAN_POINT('',(66.2820866178262,5.,-42.8652024113249));
#251=CARTESIAN_POINT('',(68.1774147053404,0.,-42.7658724752455));
#252=CARTESIAN_POINT('Origin',(68.2820866178263,0.,-44.7631315447547));
#253=CARTESIAN_POINT('',(66.2820866178262,5.,-44.7631315447547));
#254=CARTESIAN_POINT('Origin',(68.2820866178263,5.,-44.7631315447547));
#255=CARTESIAN_POINT('',(66.2820866178262,0.,-44.7631315447547));
#256=CARTESIAN_POINT('Origin',(276.282086617826,0.,-51.6003466901904));
#257=CARTESIAN_POINT('',(66.2820866178262,5.,-51.6003466901904));
#258=CARTESIAN_POINT('',(66.2820866178262,0.,-51.6003466901904));
#259=CARTESIAN_POINT('',(276.282086617826,5.,-51.6003466901904));
#260=CARTESIAN_POINT('',(276.282086617826,5.,-51.6003466901904));
#261=CARTESIAN_POINT('',(276.282086617826,0.,-51.6003466901904));
#262=CARTESIAN_POINT('Origin',(276.282086617826,0.,-37.1003466901904));
#263=CARTESIAN_POINT('',(276.282086617826,5.,-37.1003466901904));
#264=CARTESIAN_POINT('',(276.282086617826,5.,-37.1003466901904));
#265=CARTESIAN_POINT('',(276.282086617826,0.,-37.1003466901904));
#266=CARTESIAN_POINT('Origin',(176.282086617826,0.,-37.1003466901903));
#267=CARTESIAN_POINT('',(176.282086617826,5.,-37.1003466901903));
#268=CARTESIAN_POINT('Origin',(66.2820866178262,0.,-51.6003466901904));
#269=CARTESIAN_POINT('',(66.2820866178262,5.,-51.6003466901904));
#270=CARTESIAN_POINT('Origin',(171.282086617826,5.,-44.3503466901903));
#271=UNCERTAINTY_MEASURE_WITH_UNIT(LENGTH_MEASURE(0.01),#275,
'DISTANCE_ACCURACY_VALUE',
'Maximum model space distance between geometric entities at asserted c
onnectivities');
#272=UNCERTAINTY_MEASURE_WITH_UNIT(LENGTH_MEASURE(0.01),#275,
'DISTANCE_ACCURACY_VALUE',
'Maximum model space distance between geometric entities at asserted c
onnectivities');
#273=(
GEOMETRIC_REPRESENTATION_CONTEXT(3)
GLOBAL_UNCERTAINTY_ASSIGNED_CONTEXT((#271))
GLOBAL_UNIT_ASSIGNED_CONTEXT((#275,#276,#277))
REPRESENTATION_CONTEXT('','3D')
);
#274=(
GEOMETRIC_REPRESENTATION_CONTEXT(3)
GLOBAL_UNCERTAINTY_ASSIGNED_CONTEXT((#272))
GLOBAL_UNIT_ASSIGNED_CONTEXT((#275,#276,#277))
REPRESENTATION_CONTEXT('','3D')
);
#275=(
LENGTH_UNIT()
NAMED_UNIT(*)
SI_UNIT(.MILLI.,.METRE.)
);
#276=(
NAMED_UNIT(*)
PLANE_ANGLE_UNIT()
SI_UNIT($,.RADIAN.)
);
#277=(
NAMED_UNIT(*)
SI_UNIT($,.STERADIAN.)
SOLID_ANGLE_UNIT()
);
#278=SHAPE_DEFINITION_REPRESENTATION(#279,#280);
#279=PRODUCT_DEFINITION_SHAPE('',$,#282);
#280=SHAPE_REPRESENTATION('',(#167),#273);
#281=PRODUCT_DEFINITION_CONTEXT('part definition',#286,'design');
#282=PRODUCT_DEFINITION('Mold cover','Mold cover v54',#283,#281);
#283=PRODUCT_DEFINITION_FORMATION('',$,#288);
#284=PRODUCT_RELATED_PRODUCT_CATEGORY('Mold cover v54','Mold cover v54',
(#288));
#285=APPLICATION_PROTOCOL_DEFINITION('international standard',
'automotive_design',2009,#286);
#286=APPLICATION_CONTEXT(
'Core Data for Automotive Mechanical Design Process');
#287=PRODUCT_CONTEXT('part definition',#286,'mechanical');
#288=PRODUCT('Mold cover','Mold cover v54',$,(#287));
#289=PRESENTATION_STYLE_ASSIGNMENT((#292));
#290=PRESENTATION_STYLE_ASSIGNMENT((#293));
#291=PRESENTATION_STYLE_ASSIGNMENT((#294));
#292=SURFACE_STYLE_USAGE(.BOTH.,#295);
#293=SURFACE_STYLE_USAGE(.BOTH.,#296);
#294=SURFACE_STYLE_USAGE(.BOTH.,#297);
#295=SURFACE_SIDE_STYLE('',(#298));
#296=SURFACE_SIDE_STYLE('',(#299));
#297=SURFACE_SIDE_STYLE('',(#300));
#298=SURFACE_STYLE_FILL_AREA(#301);
#299=SURFACE_STYLE_FILL_AREA(#302);
#300=SURFACE_STYLE_FILL_AREA(#303);
#301=FILL_AREA_STYLE('Steel - Satin',(#304));
#302=FILL_AREA_STYLE('Paint - Enamel Glossy (Blue)',(#305));
#303=FILL_AREA_STYLE('Paint - Enamel Glossy (Green)',(#306));
#304=FILL_AREA_STYLE_COLOUR('Steel - Satin',#307);
#305=FILL_AREA_STYLE_COLOUR('Paint - Enamel Glossy (Blue)',#308);
#306=FILL_AREA_STYLE_COLOUR('Paint - Enamel Glossy (Green)',#309);
#307=COLOUR_RGB('Steel - Satin',0.627450980392157,0.627450980392157,0.627450980392157);
#308=COLOUR_RGB('Paint - Enamel Glossy (Blue)',0.188235294117647,0.231372549019608,
0.588235294117647);
#309=COLOUR_RGB('Paint - Enamel Glossy (Green)',0.266666666666667,0.588235294117647,
0.282352941176471);
ENDSEC;
END-ISO-10303-21;
