ISO-10303-21;
HEADER;
/* Generated by software containing ST-Developer
 * from STEP Tools, Inc. (www.steptools.com) 
 */
/* OPTION: using custom schema-name function */

FILE_DESCRIPTION(
/* description */ (''),
/* implementation_level */ '2;1');

FILE_NAME(
/* name */ 'F90002307_A-BAGUE B.stp',
/* time_stamp */ '2024-09-18T16:02:23+02:00',
/* author */ (''),
/* organization */ (''),
/* preprocessor_version */ 'ST-DEVELOPER v18.1',
/* originating_system */ 'SIEMENS PLM Software NX 2000',
/* authorisation */ '');

FILE_SCHEMA (('AUTOMOTIVE_DESIGN { 1 0 10303 214 3 1 1 1 }'));
ENDSEC;

DATA;
#10=SHAPE_REPRESENTATION_RELATIONSHIP('None',
'relationship between F90002307_A-BAGUE B-None and F90002307_A-BAGUE B
-None',#22,#11);
#11=ADVANCED_BREP_SHAPE_REPRESENTATION('F90002307_A-BAGUE B-None',(#32),
#359);
#12=SHAPE_DEFINITION_REPRESENTATION(#13,#22);
#13=PRODUCT_DEFINITION_SHAPE('','',#14);
#14=PRODUCT_DEFINITION(' ','',#16,#15);
#15=PRODUCT_DEFINITION_CONTEXT('part definition',#21,'design');
#16=PRODUCT_DEFINITION_FORMATION_WITH_SPECIFIED_SOURCE(' ',' ',#18,
 .NOT_KNOWN.);
#17=PRODUCT_RELATED_PRODUCT_CATEGORY('part','',(#18));
#18=PRODUCT('F90002307_A-BAGUE B','F90002307_A-BAGUE B',' ',(#19));
#19=PRODUCT_CONTEXT(' ',#21,'mechanical');
#20=APPLICATION_PROTOCOL_DEFINITION('international standard',
'automotive_design',2010,#21);
#21=APPLICATION_CONTEXT(
'core data for automotive mechanical design processes');
#22=SHAPE_REPRESENTATION('F90002307_A-BAGUE B-None',(#210),#359);
#23=PRESENTATION_LAYER_ASSIGNMENT('1','Layer 1',(#32));
#24=STYLED_ITEM('',(#25),#32);
#25=PRESENTATION_STYLE_ASSIGNMENT((#26));
#26=SURFACE_STYLE_USAGE(.BOTH.,#27);
#27=SURFACE_SIDE_STYLE('',(#28));
#28=SURFACE_STYLE_FILL_AREA(#29);
#29=FILL_AREA_STYLE('',(#30));
#30=FILL_AREA_STYLE_COLOUR('',#31);
#31=COLOUR_RGB('medium steel',0.596078431372549,0.666666666666667,0.686274509803922);
#32=MANIFOLD_SOLID_BREP('',#33);
#33=CLOSED_SHELL('',(#46,#47,#48,#49,#50,#51,#52,#53,#54,#55,#56,#57,#58,
#59,#60,#61));
#34=TOROIDAL_SURFACE('',#241,10.4,0.5);
#35=TOROIDAL_SURFACE('',#242,17.4,0.5);
#36=CONICAL_SURFACE('',#235,6.00000000000009,45.);
#37=CONICAL_SURFACE('',#236,17.9,45.);
#38=CONICAL_SURFACE('',#237,19.4,45.0000000000002);
#39=CONICAL_SURFACE('',#238,6.5000000000001,45.);
#40=CONICAL_SURFACE('',#239,19.9,45.0000000000002);
#41=CONICAL_SURFACE('',#240,8.74529946162075,30.);
#42=PLANE('',#216);
#43=PLANE('',#222);
#44=PLANE('',#228);
#45=PLANE('',#234);
#46=ADVANCED_FACE('',(#66,#67),#62,.F.);
#47=ADVANCED_FACE('',(#68,#69),#42,.T.);
#48=ADVANCED_FACE('',(#70,#71),#63,.T.);
#49=ADVANCED_FACE('',(#72,#73),#43,.T.);
#50=ADVANCED_FACE('',(#74,#75),#64,.F.);
#51=ADVANCED_FACE('',(#76,#77),#44,.T.);
#52=ADVANCED_FACE('',(#78,#79),#65,.T.);
#53=ADVANCED_FACE('',(#80,#81),#45,.T.);
#54=ADVANCED_FACE('',(#82,#83),#36,.F.);
#55=ADVANCED_FACE('',(#84,#85),#37,.F.);
#56=ADVANCED_FACE('',(#86,#87),#38,.T.);
#57=ADVANCED_FACE('',(#88,#89),#39,.F.);
#58=ADVANCED_FACE('',(#90,#91),#40,.T.);
#59=ADVANCED_FACE('',(#92,#93),#41,.T.);
#60=ADVANCED_FACE('',(#94,#95),#34,.F.);
#61=ADVANCED_FACE('',(#96,#97),#35,.F.);
#62=CYLINDRICAL_SURFACE('',#213,6.00000000000009);
#63=CYLINDRICAL_SURFACE('',#219,9.9);
#64=CYLINDRICAL_SURFACE('',#225,17.9);
#65=CYLINDRICAL_SURFACE('',#231,19.9);
#66=FACE_BOUND('',#98,.T.);
#67=FACE_BOUND('',#99,.T.);
#68=FACE_BOUND('',#100,.T.);
#69=FACE_BOUND('',#101,.T.);
#70=FACE_BOUND('',#102,.T.);
#71=FACE_BOUND('',#103,.T.);
#72=FACE_BOUND('',#104,.T.);
#73=FACE_BOUND('',#105,.T.);
#74=FACE_BOUND('',#106,.T.);
#75=FACE_BOUND('',#107,.T.);
#76=FACE_BOUND('',#108,.T.);
#77=FACE_BOUND('',#109,.T.);
#78=FACE_BOUND('',#110,.T.);
#79=FACE_BOUND('',#111,.T.);
#80=FACE_BOUND('',#112,.T.);
#81=FACE_BOUND('',#113,.T.);
#82=FACE_BOUND('',#114,.T.);
#83=FACE_BOUND('',#115,.T.);
#84=FACE_BOUND('',#116,.T.);
#85=FACE_BOUND('',#117,.T.);
#86=FACE_BOUND('',#118,.T.);
#87=FACE_BOUND('',#119,.T.);
#88=FACE_BOUND('',#120,.T.);
#89=FACE_BOUND('',#121,.T.);
#90=FACE_BOUND('',#122,.T.);
#91=FACE_BOUND('',#123,.T.);
#92=FACE_BOUND('',#124,.T.);
#93=FACE_BOUND('',#125,.T.);
#94=FACE_BOUND('',#126,.T.);
#95=FACE_BOUND('',#127,.T.);
#96=FACE_BOUND('',#128,.T.);
#97=FACE_BOUND('',#129,.T.);
#98=EDGE_LOOP('',(#130));
#99=EDGE_LOOP('',(#131));
#100=EDGE_LOOP('',(#132));
#101=EDGE_LOOP('',(#133));
#102=EDGE_LOOP('',(#134));
#103=EDGE_LOOP('',(#135));
#104=EDGE_LOOP('',(#136));
#105=EDGE_LOOP('',(#137));
#106=EDGE_LOOP('',(#138));
#107=EDGE_LOOP('',(#139));
#108=EDGE_LOOP('',(#140));
#109=EDGE_LOOP('',(#141));
#110=EDGE_LOOP('',(#142));
#111=EDGE_LOOP('',(#143));
#112=EDGE_LOOP('',(#144));
#113=EDGE_LOOP('',(#145));
#114=EDGE_LOOP('',(#146));
#115=EDGE_LOOP('',(#147));
#116=EDGE_LOOP('',(#148));
#117=EDGE_LOOP('',(#149));
#118=EDGE_LOOP('',(#150));
#119=EDGE_LOOP('',(#151));
#120=EDGE_LOOP('',(#152));
#121=EDGE_LOOP('',(#153));
#122=EDGE_LOOP('',(#154));
#123=EDGE_LOOP('',(#155));
#124=EDGE_LOOP('',(#156));
#125=EDGE_LOOP('',(#157));
#126=EDGE_LOOP('',(#158));
#127=EDGE_LOOP('',(#159));
#128=EDGE_LOOP('',(#160));
#129=EDGE_LOOP('',(#161));
#130=ORIENTED_EDGE('',*,*,#178,.T.);
#131=ORIENTED_EDGE('',*,*,#179,.T.);
#132=ORIENTED_EDGE('',*,*,#180,.T.);
#133=ORIENTED_EDGE('',*,*,#181,.T.);
#134=ORIENTED_EDGE('',*,*,#182,.T.);
#135=ORIENTED_EDGE('',*,*,#183,.T.);
#136=ORIENTED_EDGE('',*,*,#184,.T.);
#137=ORIENTED_EDGE('',*,*,#185,.T.);
#138=ORIENTED_EDGE('',*,*,#186,.T.);
#139=ORIENTED_EDGE('',*,*,#187,.T.);
#140=ORIENTED_EDGE('',*,*,#188,.T.);
#141=ORIENTED_EDGE('',*,*,#189,.T.);
#142=ORIENTED_EDGE('',*,*,#190,.T.);
#143=ORIENTED_EDGE('',*,*,#191,.T.);
#144=ORIENTED_EDGE('',*,*,#192,.T.);
#145=ORIENTED_EDGE('',*,*,#193,.T.);
#146=ORIENTED_EDGE('',*,*,#181,.F.);
#147=ORIENTED_EDGE('',*,*,#178,.F.);
#148=ORIENTED_EDGE('',*,*,#188,.F.);
#149=ORIENTED_EDGE('',*,*,#187,.F.);
#150=ORIENTED_EDGE('',*,*,#190,.F.);
#151=ORIENTED_EDGE('',*,*,#189,.F.);
#152=ORIENTED_EDGE('',*,*,#179,.F.);
#153=ORIENTED_EDGE('',*,*,#192,.F.);
#154=ORIENTED_EDGE('',*,*,#193,.F.);
#155=ORIENTED_EDGE('',*,*,#191,.F.);
#156=ORIENTED_EDGE('',*,*,#183,.F.);
#157=ORIENTED_EDGE('',*,*,#180,.F.);
#158=ORIENTED_EDGE('',*,*,#184,.F.);
#159=ORIENTED_EDGE('',*,*,#182,.F.);
#160=ORIENTED_EDGE('',*,*,#186,.F.);
#161=ORIENTED_EDGE('',*,*,#185,.F.);
#162=VERTEX_POINT('',#311);
#163=VERTEX_POINT('',#313);
#164=VERTEX_POINT('',#316);
#165=VERTEX_POINT('',#318);
#166=VERTEX_POINT('',#321);
#167=VERTEX_POINT('',#323);
#168=VERTEX_POINT('',#326);
#169=VERTEX_POINT('',#328);
#170=VERTEX_POINT('',#331);
#171=VERTEX_POINT('',#333);
#172=VERTEX_POINT('',#336);
#173=VERTEX_POINT('',#338);
#174=VERTEX_POINT('',#341);
#175=VERTEX_POINT('',#343);
#176=VERTEX_POINT('',#346);
#177=VERTEX_POINT('',#348);
#178=EDGE_CURVE('',#162,#162,#194,.T.);
#179=EDGE_CURVE('',#163,#163,#195,.T.);
#180=EDGE_CURVE('',#164,#164,#196,.T.);
#181=EDGE_CURVE('',#165,#165,#197,.T.);
#182=EDGE_CURVE('',#166,#166,#198,.T.);
#183=EDGE_CURVE('',#167,#167,#199,.T.);
#184=EDGE_CURVE('',#168,#168,#200,.T.);
#185=EDGE_CURVE('',#169,#169,#201,.T.);
#186=EDGE_CURVE('',#170,#170,#202,.T.);
#187=EDGE_CURVE('',#171,#171,#203,.T.);
#188=EDGE_CURVE('',#172,#172,#204,.T.);
#189=EDGE_CURVE('',#173,#173,#205,.T.);
#190=EDGE_CURVE('',#174,#174,#206,.T.);
#191=EDGE_CURVE('',#175,#175,#207,.T.);
#192=EDGE_CURVE('',#176,#176,#208,.T.);
#193=EDGE_CURVE('',#177,#177,#209,.T.);
#194=CIRCLE('',#211,6.00000000000009);
#195=CIRCLE('',#212,6.00000000000009);
#196=CIRCLE('',#214,8.74529946162075);
#197=CIRCLE('',#215,6.5000000000001);
#198=CIRCLE('',#217,9.9);
#199=CIRCLE('',#218,9.9);
#200=CIRCLE('',#220,10.4);
#201=CIRCLE('',#221,17.4);
#202=CIRCLE('',#223,17.9);
#203=CIRCLE('',#224,17.9);
#204=CIRCLE('',#226,18.4);
#205=CIRCLE('',#227,19.4);
#206=CIRCLE('',#229,19.9);
#207=CIRCLE('',#230,19.9);
#208=CIRCLE('',#232,6.5000000000001);
#209=CIRCLE('',#233,19.4);
#210=AXIS2_PLACEMENT_3D('',#309,#243,#244);
#211=AXIS2_PLACEMENT_3D('',#310,#245,#246);
#212=AXIS2_PLACEMENT_3D('',#312,#247,#248);
#213=AXIS2_PLACEMENT_3D('',#314,#249,#250);
#214=AXIS2_PLACEMENT_3D('',#315,#251,#252);
#215=AXIS2_PLACEMENT_3D('',#317,#253,#254);
#216=AXIS2_PLACEMENT_3D('',#319,#255,#256);
#217=AXIS2_PLACEMENT_3D('',#320,#257,#258);
#218=AXIS2_PLACEMENT_3D('',#322,#259,#260);
#219=AXIS2_PLACEMENT_3D('',#324,#261,#262);
#220=AXIS2_PLACEMENT_3D('',#325,#263,#264);
#221=AXIS2_PLACEMENT_3D('',#327,#265,#266);
#222=AXIS2_PLACEMENT_3D('',#329,#267,#268);
#223=AXIS2_PLACEMENT_3D('',#330,#269,#270);
#224=AXIS2_PLACEMENT_3D('',#332,#271,#272);
#225=AXIS2_PLACEMENT_3D('',#334,#273,#274);
#226=AXIS2_PLACEMENT_3D('',#335,#275,#276);
#227=AXIS2_PLACEMENT_3D('',#337,#277,#278);
#228=AXIS2_PLACEMENT_3D('',#339,#279,#280);
#229=AXIS2_PLACEMENT_3D('',#340,#281,#282);
#230=AXIS2_PLACEMENT_3D('',#342,#283,#284);
#231=AXIS2_PLACEMENT_3D('',#344,#285,#286);
#232=AXIS2_PLACEMENT_3D('',#345,#287,#288);
#233=AXIS2_PLACEMENT_3D('',#347,#289,#290);
#234=AXIS2_PLACEMENT_3D('',#349,#291,#292);
#235=AXIS2_PLACEMENT_3D('',#350,#293,#294);
#236=AXIS2_PLACEMENT_3D('',#351,#295,#296);
#237=AXIS2_PLACEMENT_3D('',#352,#297,#298);
#238=AXIS2_PLACEMENT_3D('',#353,#299,#300);
#239=AXIS2_PLACEMENT_3D('',#354,#301,#302);
#240=AXIS2_PLACEMENT_3D('',#355,#303,#304);
#241=AXIS2_PLACEMENT_3D('',#356,#305,#306);
#242=AXIS2_PLACEMENT_3D('',#357,#307,#308);
#243=DIRECTION('',(0.,0.,1.));
#244=DIRECTION('',(1.,0.,0.));
#245=DIRECTION('',(0.,-1.,0.));
#246=DIRECTION('',(0.,0.,-1.));
#247=DIRECTION('',(0.,1.,0.));
#248=DIRECTION('',(0.,0.,1.));
#249=DIRECTION('',(0.,-1.,0.));
#250=DIRECTION('',(0.,0.,-1.));
#251=DIRECTION('',(0.,-1.,0.));
#252=DIRECTION('',(0.,0.,-1.));
#253=DIRECTION('',(0.,1.,0.));
#254=DIRECTION('',(0.,0.,-1.));
#255=DIRECTION('',(0.,-1.,0.));
#256=DIRECTION('',(0.,0.,-1.));
#257=DIRECTION('',(0.,-1.,0.));
#258=DIRECTION('',(0.,0.,-1.));
#259=DIRECTION('',(0.,1.,0.));
#260=DIRECTION('',(0.,0.,-1.));
#261=DIRECTION('',(0.,-1.,0.));
#262=DIRECTION('',(0.,0.,-1.));
#263=DIRECTION('',(0.,1.,0.));
#264=DIRECTION('',(0.,0.,-1.));
#265=DIRECTION('',(0.,-1.,0.));
#266=DIRECTION('',(0.,0.,-1.));
#267=DIRECTION('',(0.,-1.,0.));
#268=DIRECTION('',(0.,0.,-1.));
#269=DIRECTION('',(0.,1.,0.));
#270=DIRECTION('',(0.,0.,-1.));
#271=DIRECTION('',(0.,-1.,0.));
#272=DIRECTION('',(0.,0.,-1.));
#273=DIRECTION('',(0.,-1.,0.));
#274=DIRECTION('',(0.,0.,-1.));
#275=DIRECTION('',(0.,1.,0.));
#276=DIRECTION('',(0.,0.,-1.));
#277=DIRECTION('',(0.,-1.,0.));
#278=DIRECTION('',(0.,0.,-1.));
#279=DIRECTION('',(0.,-1.,0.));
#280=DIRECTION('',(0.,0.,-1.));
#281=DIRECTION('',(0.,1.,0.));
#282=DIRECTION('',(0.,0.,-1.));
#283=DIRECTION('',(0.,-1.,0.));
#284=DIRECTION('',(0.,0.,1.));
#285=DIRECTION('',(0.,-1.,0.));
#286=DIRECTION('',(0.,0.,-1.));
#287=DIRECTION('',(0.,-1.,0.));
#288=DIRECTION('',(0.,0.,1.));
#289=DIRECTION('',(0.,1.,0.));
#290=DIRECTION('',(0.,0.,1.));
#291=DIRECTION('',(0.,1.,0.));
#292=DIRECTION('',(0.,0.,1.));
#293=DIRECTION('',(0.,-1.,0.));
#294=DIRECTION('',(0.,5.36712407453063E-17,-1.));
#295=DIRECTION('',(0.,-1.,0.));
#296=DIRECTION('',(0.,-4.94223212529005E-17,-1.));
#297=DIRECTION('',(0.,1.,0.));
#298=DIRECTION('',(0.,5.1051308886898E-18,1.));
#299=DIRECTION('',(0.,1.,0.));
#300=DIRECTION('',(0.,1.72352059212798E-17,1.));
#301=DIRECTION('',(0.,-1.,0.));
#302=DIRECTION('',(0.,-3.74192729399838E-17,-1.));
#303=DIRECTION('',(0.,1.,0.));
#304=DIRECTION('',(0.,-2.08950018503896E-19,1.));
#305=DIRECTION('',(0.,-1.,0.));
#306=DIRECTION('',(0.,0.,-1.));
#307=DIRECTION('',(0.,-1.,0.));
#308=DIRECTION('',(0.,0.,-1.));
#309=CARTESIAN_POINT('',(0.,0.,0.));
#310=CARTESIAN_POINT('',(0.,0.500000000000002,0.));
#311=CARTESIAN_POINT('',(0.,0.500000000000002,-6.00000000000009));
#312=CARTESIAN_POINT('',(0.,19.5,0.));
#313=CARTESIAN_POINT('',(0.,19.5,6.00000000000009));
#314=CARTESIAN_POINT('',(0.,0.,0.));
#315=CARTESIAN_POINT('',(0.,1.2246467991473E-16,0.));
#316=CARTESIAN_POINT('',(0.,1.2246467991473E-16,-8.74529946162075));
#317=CARTESIAN_POINT('',(0.,1.2246467991473E-16,0.));
#318=CARTESIAN_POINT('',(0.,1.2246467991473E-16,-6.5000000000001));
#319=CARTESIAN_POINT('',(6.00000000000019,1.2246467991473E-16,0.));
#320=CARTESIAN_POINT('',(0.,9.5,0.));
#321=CARTESIAN_POINT('',(0.,9.5,-9.9));
#322=CARTESIAN_POINT('',(0.,2.,0.));
#323=CARTESIAN_POINT('',(0.,2.,-9.9));
#324=CARTESIAN_POINT('',(0.,0.,0.));
#325=CARTESIAN_POINT('',(0.,10.,0.));
#326=CARTESIAN_POINT('',(0.,10.,-10.4));
#327=CARTESIAN_POINT('',(0.,10.,0.));
#328=CARTESIAN_POINT('',(0.,10.,-17.4));
#329=CARTESIAN_POINT('',(9.9,10.,0.));
#330=CARTESIAN_POINT('',(0.,9.5,0.));
#331=CARTESIAN_POINT('',(0.,9.5,-17.9));
#332=CARTESIAN_POINT('',(0.,6.5,0.));
#333=CARTESIAN_POINT('',(0.,6.5,-17.9));
#334=CARTESIAN_POINT('',(0.,0.,0.));
#335=CARTESIAN_POINT('',(0.,6.,0.));
#336=CARTESIAN_POINT('',(0.,6.,-18.4));
#337=CARTESIAN_POINT('',(0.,6.,0.));
#338=CARTESIAN_POINT('',(0.,6.,-19.4));
#339=CARTESIAN_POINT('',(17.9,6.,0.));
#340=CARTESIAN_POINT('',(0.,6.5,0.));
#341=CARTESIAN_POINT('',(0.,6.5,-19.9));
#342=CARTESIAN_POINT('',(0.,19.5,0.));
#343=CARTESIAN_POINT('',(0.,19.5,19.9));
#344=CARTESIAN_POINT('',(0.,0.,0.));
#345=CARTESIAN_POINT('',(0.,20.,0.));
#346=CARTESIAN_POINT('',(0.,20.,6.5000000000001));
#347=CARTESIAN_POINT('',(0.,20.,0.));
#348=CARTESIAN_POINT('',(0.,20.,19.4));
#349=CARTESIAN_POINT('',(19.9,20.,0.));
#350=CARTESIAN_POINT('',(0.,0.500000000000002,0.));
#351=CARTESIAN_POINT('',(0.,6.5,0.));
#352=CARTESIAN_POINT('',(0.,6.,0.));
#353=CARTESIAN_POINT('',(0.,20.,0.));
#354=CARTESIAN_POINT('',(0.,19.5,0.));
#355=CARTESIAN_POINT('',(0.,1.2246467991473E-16,0.));
#356=CARTESIAN_POINT('',(0.,9.5,0.));
#357=CARTESIAN_POINT('',(0.,9.5,0.));
#358=MECHANICAL_DESIGN_GEOMETRIC_PRESENTATION_REPRESENTATION('',(#24),#359);
#359=(
GEOMETRIC_REPRESENTATION_CONTEXT(3)
GLOBAL_UNCERTAINTY_ASSIGNED_CONTEXT((#360))
GLOBAL_UNIT_ASSIGNED_CONTEXT((#366,#362,#361))
REPRESENTATION_CONTEXT('F90002307_A-BAGUE B','TOP_LEVEL_ASSEMBLY_PART')
);
#360=UNCERTAINTY_MEASURE_WITH_UNIT(LENGTH_MEASURE(2.E-5),#366,
'DISTANCE_ACCURACY_VALUE','Maximum Tolerance applied to model');
#361=(
NAMED_UNIT(*)
SI_UNIT($,.STERADIAN.)
SOLID_ANGLE_UNIT()
);
#362=(
CONVERSION_BASED_UNIT('DEGREE',#364)
NAMED_UNIT(#363)
PLANE_ANGLE_UNIT()
);
#363=DIMENSIONAL_EXPONENTS(0.,0.,0.,0.,0.,0.,0.);
#364=PLANE_ANGLE_MEASURE_WITH_UNIT(PLANE_ANGLE_MEASURE(0.0174532925),#365);
#365=(
NAMED_UNIT(*)
PLANE_ANGLE_UNIT()
SI_UNIT($,.RADIAN.)
);
#366=(
LENGTH_UNIT()
NAMED_UNIT(*)
SI_UNIT(.MILLI.,.METRE.)
);
ENDSEC;
END-ISO-10303-21;
