ISO-10303-21;
HEADER;
/* Generated by software containing ST-Developer
 * from STEP Tools, Inc. (www.steptools.com) 
 */

FILE_DESCRIPTION(
/* description */ (''),
/* implementation_level */ '2;1');

FILE_NAME(
/* name */ '10-14 adapter-shortener v3.step',
/* time_stamp */ '2024-09-14T17:23:45+02:00',
/* author */ (''),
/* organization */ (''),
/* preprocessor_version */ 'ST-DEVELOPER v20',
/* originating_system */ 'Autodesk Translation Framework v13.14.0.145',

/* authorisation */ '');

FILE_SCHEMA (('AUTOMOTIVE_DESIGN { 1 0 10303 214 3 1 1 }'));
ENDSEC;

DATA;
#10=MECHANICAL_DESIGN_GEOMETRIC_PRESENTATION_REPRESENTATION('',(#13),#360);
#11=SHAPE_REPRESENTATION_RELATIONSHIP('SRR','None',#367,#12);
#12=ADVANCED_BREP_SHAPE_REPRESENTATION('',(#14),#359);
#13=STYLED_ITEM('',(#376),#14);
#14=MANIFOLD_SOLID_BREP('Corps1',#208);
#15=CYLINDRICAL_SURFACE('',#227,5.);
#16=CYLINDRICAL_SURFACE('',#230,5.);
#17=CYLINDRICAL_SURFACE('',#233,7.);
#18=CYLINDRICAL_SURFACE('',#238,7.);
#19=FACE_BOUND('',#33,.T.);
#20=FACE_BOUND('',#44,.T.);
#21=FACE_OUTER_BOUND('',#32,.T.);
#22=FACE_OUTER_BOUND('',#34,.T.);
#23=FACE_OUTER_BOUND('',#35,.T.);
#24=FACE_OUTER_BOUND('',#36,.T.);
#25=FACE_OUTER_BOUND('',#37,.T.);
#26=FACE_OUTER_BOUND('',#38,.T.);
#27=FACE_OUTER_BOUND('',#39,.T.);
#28=FACE_OUTER_BOUND('',#40,.T.);
#29=FACE_OUTER_BOUND('',#41,.T.);
#30=FACE_OUTER_BOUND('',#42,.T.);
#31=FACE_OUTER_BOUND('',#43,.T.);
#32=EDGE_LOOP('',(#136,#137,#138,#139,#140,#141,#142,#143));
#33=EDGE_LOOP('',(#144));
#34=EDGE_LOOP('',(#145,#146,#147,#148));
#35=EDGE_LOOP('',(#149,#150,#151,#152));
#36=EDGE_LOOP('',(#153,#154,#155,#156));
#37=EDGE_LOOP('',(#157,#158,#159,#160));
#38=EDGE_LOOP('',(#161,#162,#163,#164));
#39=EDGE_LOOP('',(#165,#166,#167,#168));
#40=EDGE_LOOP('',(#169,#170,#171,#172));
#41=EDGE_LOOP('',(#173,#174,#175,#176));
#42=EDGE_LOOP('',(#177,#178,#179,#180));
#43=EDGE_LOOP('',(#181,#182,#183,#184,#185,#186,#187,#188));
#44=EDGE_LOOP('',(#189));
#45=LINE('',#306,#64);
#46=LINE('',#310,#65);
#47=LINE('',#314,#66);
#48=LINE('',#316,#67);
#49=LINE('',#317,#68);
#50=LINE('',#323,#69);
#51=LINE('',#326,#70);
#52=LINE('',#328,#71);
#53=LINE('',#329,#72);
#54=LINE('',#333,#73);
#55=LINE('',#336,#74);
#56=LINE('',#337,#75);
#57=LINE('',#341,#76);
#58=LINE('',#344,#77);
#59=LINE('',#345,#78);
#60=LINE('',#348,#79);
#61=LINE('',#349,#80);
#62=LINE('',#352,#81);
#63=LINE('',#353,#82);
#64=VECTOR('',#247,10.);
#65=VECTOR('',#250,10.);
#66=VECTOR('',#253,10.);
#67=VECTOR('',#254,10.);
#68=VECTOR('',#255,10.);
#69=VECTOR('',#262,5.);
#70=VECTOR('',#265,10.);
#71=VECTOR('',#266,10.);
#72=VECTOR('',#267,10.);
#73=VECTOR('',#272,10.);
#74=VECTOR('',#275,10.);
#75=VECTOR('',#276,10.);
#76=VECTOR('',#281,10.);
#77=VECTOR('',#284,10.);
#78=VECTOR('',#285,10.);
#79=VECTOR('',#288,10.);
#80=VECTOR('',#289,10.);
#81=VECTOR('',#292,10.);
#82=VECTOR('',#293,10.);
#83=CIRCLE('',#223,7.);
#84=CIRCLE('',#224,5.);
#85=CIRCLE('',#225,7.);
#86=CIRCLE('',#226,5.);
#87=CIRCLE('',#228,5.);
#88=CIRCLE('',#231,5.);
#89=CIRCLE('',#234,7.);
#90=CIRCLE('',#239,7.);
#91=VERTEX_POINT('',#302);
#92=VERTEX_POINT('',#303);
#93=VERTEX_POINT('',#305);
#94=VERTEX_POINT('',#307);
#95=VERTEX_POINT('',#309);
#96=VERTEX_POINT('',#311);
#97=VERTEX_POINT('',#313);
#98=VERTEX_POINT('',#315);
#99=VERTEX_POINT('',#318);
#100=VERTEX_POINT('',#321);
#101=VERTEX_POINT('',#325);
#102=VERTEX_POINT('',#327);
#103=VERTEX_POINT('',#331);
#104=VERTEX_POINT('',#335);
#105=VERTEX_POINT('',#339);
#106=VERTEX_POINT('',#343);
#107=VERTEX_POINT('',#347);
#108=VERTEX_POINT('',#351);
#109=EDGE_CURVE('',#91,#92,#83,.T.);
#110=EDGE_CURVE('',#92,#93,#45,.T.);
#111=EDGE_CURVE('',#93,#94,#84,.T.);
#112=EDGE_CURVE('',#94,#95,#46,.T.);
#113=EDGE_CURVE('',#95,#96,#85,.T.);
#114=EDGE_CURVE('',#96,#97,#47,.T.);
#115=EDGE_CURVE('',#97,#98,#48,.T.);
#116=EDGE_CURVE('',#98,#91,#49,.T.);
#117=EDGE_CURVE('',#99,#99,#86,.T.);
#118=EDGE_CURVE('',#100,#100,#87,.T.);
#119=EDGE_CURVE('',#100,#99,#50,.T.);
#120=EDGE_CURVE('',#101,#92,#51,.T.);
#121=EDGE_CURVE('',#102,#101,#52,.T.);
#122=EDGE_CURVE('',#93,#102,#53,.T.);
#123=EDGE_CURVE('',#103,#102,#88,.T.);
#124=EDGE_CURVE('',#94,#103,#54,.T.);
#125=EDGE_CURVE('',#104,#103,#55,.T.);
#126=EDGE_CURVE('',#95,#104,#56,.T.);
#127=EDGE_CURVE('',#105,#104,#89,.T.);
#128=EDGE_CURVE('',#96,#105,#57,.T.);
#129=EDGE_CURVE('',#106,#105,#58,.T.);
#130=EDGE_CURVE('',#97,#106,#59,.T.);
#131=EDGE_CURVE('',#107,#106,#60,.T.);
#132=EDGE_CURVE('',#98,#107,#61,.T.);
#133=EDGE_CURVE('',#108,#107,#62,.T.);
#134=EDGE_CURVE('',#91,#108,#63,.T.);
#135=EDGE_CURVE('',#101,#108,#90,.T.);
#136=ORIENTED_EDGE('',*,*,#109,.T.);
#137=ORIENTED_EDGE('',*,*,#110,.T.);
#138=ORIENTED_EDGE('',*,*,#111,.T.);
#139=ORIENTED_EDGE('',*,*,#112,.T.);
#140=ORIENTED_EDGE('',*,*,#113,.T.);
#141=ORIENTED_EDGE('',*,*,#114,.T.);
#142=ORIENTED_EDGE('',*,*,#115,.T.);
#143=ORIENTED_EDGE('',*,*,#116,.T.);
#144=ORIENTED_EDGE('',*,*,#117,.T.);
#145=ORIENTED_EDGE('',*,*,#118,.F.);
#146=ORIENTED_EDGE('',*,*,#119,.T.);
#147=ORIENTED_EDGE('',*,*,#117,.F.);
#148=ORIENTED_EDGE('',*,*,#119,.F.);
#149=ORIENTED_EDGE('',*,*,#120,.F.);
#150=ORIENTED_EDGE('',*,*,#121,.F.);
#151=ORIENTED_EDGE('',*,*,#122,.F.);
#152=ORIENTED_EDGE('',*,*,#110,.F.);
#153=ORIENTED_EDGE('',*,*,#122,.T.);
#154=ORIENTED_EDGE('',*,*,#123,.F.);
#155=ORIENTED_EDGE('',*,*,#124,.F.);
#156=ORIENTED_EDGE('',*,*,#111,.F.);
#157=ORIENTED_EDGE('',*,*,#124,.T.);
#158=ORIENTED_EDGE('',*,*,#125,.F.);
#159=ORIENTED_EDGE('',*,*,#126,.F.);
#160=ORIENTED_EDGE('',*,*,#112,.F.);
#161=ORIENTED_EDGE('',*,*,#126,.T.);
#162=ORIENTED_EDGE('',*,*,#127,.F.);
#163=ORIENTED_EDGE('',*,*,#128,.F.);
#164=ORIENTED_EDGE('',*,*,#113,.F.);
#165=ORIENTED_EDGE('',*,*,#128,.T.);
#166=ORIENTED_EDGE('',*,*,#129,.F.);
#167=ORIENTED_EDGE('',*,*,#130,.F.);
#168=ORIENTED_EDGE('',*,*,#114,.F.);
#169=ORIENTED_EDGE('',*,*,#130,.T.);
#170=ORIENTED_EDGE('',*,*,#131,.F.);
#171=ORIENTED_EDGE('',*,*,#132,.F.);
#172=ORIENTED_EDGE('',*,*,#115,.F.);
#173=ORIENTED_EDGE('',*,*,#132,.T.);
#174=ORIENTED_EDGE('',*,*,#133,.F.);
#175=ORIENTED_EDGE('',*,*,#134,.F.);
#176=ORIENTED_EDGE('',*,*,#116,.F.);
#177=ORIENTED_EDGE('',*,*,#134,.T.);
#178=ORIENTED_EDGE('',*,*,#135,.F.);
#179=ORIENTED_EDGE('',*,*,#120,.T.);
#180=ORIENTED_EDGE('',*,*,#109,.F.);
#181=ORIENTED_EDGE('',*,*,#135,.T.);
#182=ORIENTED_EDGE('',*,*,#133,.T.);
#183=ORIENTED_EDGE('',*,*,#131,.T.);
#184=ORIENTED_EDGE('',*,*,#129,.T.);
#185=ORIENTED_EDGE('',*,*,#127,.T.);
#186=ORIENTED_EDGE('',*,*,#125,.T.);
#187=ORIENTED_EDGE('',*,*,#123,.T.);
#188=ORIENTED_EDGE('',*,*,#121,.T.);
#189=ORIENTED_EDGE('',*,*,#118,.T.);
#190=PLANE('',#222);
#191=PLANE('',#229);
#192=PLANE('',#232);
#193=PLANE('',#235);
#194=PLANE('',#236);
#195=PLANE('',#237);
#196=PLANE('',#240);
#197=ADVANCED_FACE('',(#21,#19),#190,.F.);
#198=ADVANCED_FACE('',(#22),#15,.F.);
#199=ADVANCED_FACE('',(#23),#191,.T.);
#200=ADVANCED_FACE('',(#24),#16,.F.);
#201=ADVANCED_FACE('',(#25),#192,.T.);
#202=ADVANCED_FACE('',(#26),#17,.T.);
#203=ADVANCED_FACE('',(#27),#193,.T.);
#204=ADVANCED_FACE('',(#28),#194,.T.);
#205=ADVANCED_FACE('',(#29),#195,.T.);
#206=ADVANCED_FACE('',(#30),#18,.T.);
#207=ADVANCED_FACE('',(#31,#20),#196,.T.);
#208=CLOSED_SHELL('',(#197,#198,#199,#200,#201,#202,#203,#204,#205,#206,
#207));
#209=DERIVED_UNIT_ELEMENT(#211,1.);
#210=DERIVED_UNIT_ELEMENT(#362,-3.);
#211=(
MASS_UNIT()
NAMED_UNIT(*)
SI_UNIT(.KILO.,.GRAM.)
);
#212=DERIVED_UNIT((#209,#210));
#213=MEASURE_REPRESENTATION_ITEM('density measure',
POSITIVE_RATIO_MEASURE(7850.),#212);
#214=PROPERTY_DEFINITION_REPRESENTATION(#219,#216);
#215=PROPERTY_DEFINITION_REPRESENTATION(#220,#217);
#216=REPRESENTATION('material name',(#218),#359);
#217=REPRESENTATION('density',(#213),#359);
#218=DESCRIPTIVE_REPRESENTATION_ITEM('Acier','Acier');
#219=PROPERTY_DEFINITION('material property','material name',#369);
#220=PROPERTY_DEFINITION('material property','density of part',#369);
#221=AXIS2_PLACEMENT_3D('',#300,#241,#242);
#222=AXIS2_PLACEMENT_3D('',#301,#243,#244);
#223=AXIS2_PLACEMENT_3D('',#304,#245,#246);
#224=AXIS2_PLACEMENT_3D('',#308,#248,#249);
#225=AXIS2_PLACEMENT_3D('',#312,#251,#252);
#226=AXIS2_PLACEMENT_3D('',#319,#256,#257);
#227=AXIS2_PLACEMENT_3D('',#320,#258,#259);
#228=AXIS2_PLACEMENT_3D('',#322,#260,#261);
#229=AXIS2_PLACEMENT_3D('',#324,#263,#264);
#230=AXIS2_PLACEMENT_3D('',#330,#268,#269);
#231=AXIS2_PLACEMENT_3D('',#332,#270,#271);
#232=AXIS2_PLACEMENT_3D('',#334,#273,#274);
#233=AXIS2_PLACEMENT_3D('',#338,#277,#278);
#234=AXIS2_PLACEMENT_3D('',#340,#279,#280);
#235=AXIS2_PLACEMENT_3D('',#342,#282,#283);
#236=AXIS2_PLACEMENT_3D('',#346,#286,#287);
#237=AXIS2_PLACEMENT_3D('',#350,#290,#291);
#238=AXIS2_PLACEMENT_3D('',#354,#294,#295);
#239=AXIS2_PLACEMENT_3D('',#355,#296,#297);
#240=AXIS2_PLACEMENT_3D('',#356,#298,#299);
#241=DIRECTION('axis',(0.,0.,1.));
#242=DIRECTION('refdir',(1.,0.,0.));
#243=DIRECTION('center_axis',(0.,0.,1.));
#244=DIRECTION('ref_axis',(1.,0.,0.));
#245=DIRECTION('center_axis',(0.,0.,-1.));
#246=DIRECTION('ref_axis',(-0.714285714285714,-0.699854212223765,0.));
#247=DIRECTION('',(0.,1.,0.));
#248=DIRECTION('center_axis',(0.,0.,1.));
#249=DIRECTION('ref_axis',(-0.6,-0.8,0.));
#250=DIRECTION('',(0.,1.,0.));
#251=DIRECTION('center_axis',(0.,0.,-1.));
#252=DIRECTION('ref_axis',(1.58603289232165E-16,1.,0.));
#253=DIRECTION('',(1.,-1.2335811384724E-16,0.));
#254=DIRECTION('',(0.,-1.,0.));
#255=DIRECTION('',(-1.,0.,0.));
#256=DIRECTION('center_axis',(0.,0.,1.));
#257=DIRECTION('ref_axis',(1.,0.,0.));
#258=DIRECTION('center_axis',(0.,0.,1.));
#259=DIRECTION('ref_axis',(1.,0.,0.));
#260=DIRECTION('center_axis',(0.,0.,-1.));
#261=DIRECTION('ref_axis',(1.,0.,0.));
#262=DIRECTION('',(0.,0.,-1.));
#263=DIRECTION('center_axis',(-1.,0.,0.));
#264=DIRECTION('ref_axis',(0.,-1.,0.));
#265=DIRECTION('',(0.,0.,-1.));
#266=DIRECTION('',(0.,-1.,0.));
#267=DIRECTION('',(0.,0.,1.));
#268=DIRECTION('center_axis',(0.,0.,1.));
#269=DIRECTION('ref_axis',(1.,0.,0.));
#270=DIRECTION('center_axis',(0.,0.,-1.));
#271=DIRECTION('ref_axis',(-0.6,-0.8,0.));
#272=DIRECTION('',(0.,0.,1.));
#273=DIRECTION('center_axis',(-1.,0.,0.));
#274=DIRECTION('ref_axis',(0.,-1.,0.));
#275=DIRECTION('',(0.,-1.,0.));
#276=DIRECTION('',(0.,0.,1.));
#277=DIRECTION('center_axis',(0.,0.,1.));
#278=DIRECTION('ref_axis',(1.58603289232165E-16,1.,0.));
#279=DIRECTION('center_axis',(0.,0.,1.));
#280=DIRECTION('ref_axis',(1.58603289232165E-16,1.,0.));
#281=DIRECTION('',(0.,0.,1.));
#282=DIRECTION('center_axis',(1.2335811384724E-16,1.,0.));
#283=DIRECTION('ref_axis',(-1.,1.2335811384724E-16,0.));
#284=DIRECTION('',(-1.,1.2335811384724E-16,0.));
#285=DIRECTION('',(0.,0.,1.));
#286=DIRECTION('center_axis',(1.,0.,0.));
#287=DIRECTION('ref_axis',(0.,1.,0.));
#288=DIRECTION('',(0.,1.,0.));
#289=DIRECTION('',(0.,0.,1.));
#290=DIRECTION('center_axis',(0.,-1.,0.));
#291=DIRECTION('ref_axis',(1.,0.,0.));
#292=DIRECTION('',(1.,0.,0.));
#293=DIRECTION('',(0.,0.,1.));
#294=DIRECTION('center_axis',(0.,0.,1.));
#295=DIRECTION('ref_axis',(-0.714285714285714,-0.699854212223765,0.));
#296=DIRECTION('center_axis',(0.,0.,1.));
#297=DIRECTION('ref_axis',(-0.714285714285714,-0.699854212223765,0.));
#298=DIRECTION('center_axis',(0.,0.,1.));
#299=DIRECTION('ref_axis',(1.,0.,0.));
#300=CARTESIAN_POINT('',(0.,0.,0.));
#301=CARTESIAN_POINT('Origin',(8.5,0.,-2.));
#302=CARTESIAN_POINT('',(2.,-7.,-2.));
#303=CARTESIAN_POINT('',(-3.,-4.89897948556636,-2.));
#304=CARTESIAN_POINT('Origin',(2.,0.,-2.));
#305=CARTESIAN_POINT('',(-3.,-4.,-2.));
#306=CARTESIAN_POINT('',(-3.,-4.,-2.));
#307=CARTESIAN_POINT('',(-3.,4.,-2.));
#308=CARTESIAN_POINT('Origin',(0.,0.,-2.));
#309=CARTESIAN_POINT('',(-3.,4.89897948556636,-2.));
#310=CARTESIAN_POINT('',(-3.,4.89897948556636,-2.));
#311=CARTESIAN_POINT('',(2.,7.,-2.));
#312=CARTESIAN_POINT('Origin',(2.,0.,-2.));
#313=CARTESIAN_POINT('',(20.,7.,-2.));
#314=CARTESIAN_POINT('',(20.,7.,-2.));
#315=CARTESIAN_POINT('',(20.,-7.,-2.));
#316=CARTESIAN_POINT('',(20.,-7.,-2.));
#317=CARTESIAN_POINT('',(2.,-7.,-2.));
#318=CARTESIAN_POINT('',(7.5,-6.12323399573677E-16,-2.));
#319=CARTESIAN_POINT('Origin',(12.5,0.,-2.));
#320=CARTESIAN_POINT('Origin',(12.5,0.,0.));
#321=CARTESIAN_POINT('',(7.5,-6.12323399573677E-16,2.));
#322=CARTESIAN_POINT('Origin',(12.5,0.,2.));
#323=CARTESIAN_POINT('',(7.5,-6.12323399573677E-16,0.));
#324=CARTESIAN_POINT('Origin',(-3.,-4.,0.));
#325=CARTESIAN_POINT('',(-3.,-4.89897948556636,2.));
#326=CARTESIAN_POINT('',(-3.,-4.89897948556636,0.));
#327=CARTESIAN_POINT('',(-3.,-4.,2.));
#328=CARTESIAN_POINT('',(-3.,-4.,2.));
#329=CARTESIAN_POINT('',(-3.,-4.,0.));
#330=CARTESIAN_POINT('Origin',(0.,0.,0.));
#331=CARTESIAN_POINT('',(-3.,4.,2.));
#332=CARTESIAN_POINT('Origin',(0.,0.,2.));
#333=CARTESIAN_POINT('',(-3.,4.,0.));
#334=CARTESIAN_POINT('Origin',(-3.,4.89897948556636,0.));
#335=CARTESIAN_POINT('',(-3.,4.89897948556636,2.));
#336=CARTESIAN_POINT('',(-3.,4.89897948556636,2.));
#337=CARTESIAN_POINT('',(-3.,4.89897948556636,0.));
#338=CARTESIAN_POINT('Origin',(2.,0.,0.));
#339=CARTESIAN_POINT('',(2.,7.,2.));
#340=CARTESIAN_POINT('Origin',(2.,0.,2.));
#341=CARTESIAN_POINT('',(2.,7.,0.));
#342=CARTESIAN_POINT('Origin',(20.,7.,0.));
#343=CARTESIAN_POINT('',(20.,7.,2.));
#344=CARTESIAN_POINT('',(20.,7.,2.));
#345=CARTESIAN_POINT('',(20.,7.,0.));
#346=CARTESIAN_POINT('Origin',(20.,-7.,0.));
#347=CARTESIAN_POINT('',(20.,-7.,2.));
#348=CARTESIAN_POINT('',(20.,-7.,2.));
#349=CARTESIAN_POINT('',(20.,-7.,0.));
#350=CARTESIAN_POINT('Origin',(2.,-7.,0.));
#351=CARTESIAN_POINT('',(2.,-7.,2.));
#352=CARTESIAN_POINT('',(2.,-7.,2.));
#353=CARTESIAN_POINT('',(2.,-7.,0.));
#354=CARTESIAN_POINT('Origin',(2.,0.,0.));
#355=CARTESIAN_POINT('Origin',(2.,0.,2.));
#356=CARTESIAN_POINT('Origin',(8.5,0.,2.));
#357=UNCERTAINTY_MEASURE_WITH_UNIT(LENGTH_MEASURE(0.01),#361,
'DISTANCE_ACCURACY_VALUE',
'Maximum model space distance between geometric entities at asserted c
onnectivities');
#358=UNCERTAINTY_MEASURE_WITH_UNIT(LENGTH_MEASURE(0.01),#361,
'DISTANCE_ACCURACY_VALUE',
'Maximum model space distance between geometric entities at asserted c
onnectivities');
#359=(
GEOMETRIC_REPRESENTATION_CONTEXT(3)
GLOBAL_UNCERTAINTY_ASSIGNED_CONTEXT((#357))
GLOBAL_UNIT_ASSIGNED_CONTEXT((#361,#363,#364))
REPRESENTATION_CONTEXT('','3D')
);
#360=(
GEOMETRIC_REPRESENTATION_CONTEXT(3)
GLOBAL_UNCERTAINTY_ASSIGNED_CONTEXT((#358))
GLOBAL_UNIT_ASSIGNED_CONTEXT((#361,#363,#364))
REPRESENTATION_CONTEXT('','3D')
);
#361=(
LENGTH_UNIT()
NAMED_UNIT(*)
SI_UNIT(.MILLI.,.METRE.)
);
#362=(
LENGTH_UNIT()
NAMED_UNIT(*)
SI_UNIT($,.METRE.)
);
#363=(
NAMED_UNIT(*)
PLANE_ANGLE_UNIT()
SI_UNIT($,.RADIAN.)
);
#364=(
NAMED_UNIT(*)
SI_UNIT($,.STERADIAN.)
SOLID_ANGLE_UNIT()
);
#365=SHAPE_DEFINITION_REPRESENTATION(#366,#367);
#366=PRODUCT_DEFINITION_SHAPE('',$,#369);
#367=SHAPE_REPRESENTATION('',(#221),#359);
#368=PRODUCT_DEFINITION_CONTEXT('part definition',#373,'design');
#369=PRODUCT_DEFINITION('10-14 adapter-shortener',
'10-14 adapter-shortener v3',#370,#368);
#370=PRODUCT_DEFINITION_FORMATION('',$,#375);
#371=PRODUCT_RELATED_PRODUCT_CATEGORY('10-14 adapter-shortener v3',
'10-14 adapter-shortener v3',(#375));
#372=APPLICATION_PROTOCOL_DEFINITION('international standard',
'automotive_design',2009,#373);
#373=APPLICATION_CONTEXT(
'Core Data for Automotive Mechanical Design Process');
#374=PRODUCT_CONTEXT('part definition',#373,'mechanical');
#375=PRODUCT('10-14 adapter-shortener','10-14 adapter-shortener v3',$,(#374));
#376=PRESENTATION_STYLE_ASSIGNMENT((#377));
#377=SURFACE_STYLE_USAGE(.BOTH.,#378);
#378=SURFACE_SIDE_STYLE('',(#379));
#379=SURFACE_STYLE_FILL_AREA(#380);
#380=FILL_AREA_STYLE('Acier - Satin\X\E9',(#381));
#381=FILL_AREA_STYLE_COLOUR('Acier - Satin\X\E9',#382);
#382=COLOUR_RGB('Acier - Satin\X\E9',0.627450980392157,0.627450980392157,
0.627450980392157);
ENDSEC;
END-ISO-10303-21;
