ISO-10303-21;
HEADER;
/* Generated by software containing ST-Developer
 * from STEP Tools, Inc. (www.steptools.com) 
 */

FILE_DESCRIPTION(
/* description */ (''),
/* implementation_level */ '2;1');

FILE_NAME(
/* name */ 'Ejecteur cover v52.step',
/* time_stamp */ '2024-09-19T10:03:49+02:00',
/* author */ (''),
/* organization */ (''),
/* preprocessor_version */ 'ST-DEVELOPER v20',
/* originating_system */ 'Autodesk Translation Framework v13.14.0.145',

/* authorisation */ '');

FILE_SCHEMA (('AUTOMOTIVE_DESIGN { 1 0 10303 214 3 1 1 }'));
ENDSEC;

DATA;
#10=MECHANICAL_DESIGN_GEOMETRIC_PRESENTATION_REPRESENTATION('',(#13),#129);
#11=SHAPE_REPRESENTATION_RELATIONSHIP('SRR','None',#135,#12);
#12=ADVANCED_BREP_SHAPE_REPRESENTATION('',(#14),#128);
#13=STYLED_ITEM('',(#144),#14);
#14=MANIFOLD_SOLID_BREP('Body27',#72);
#15=FACE_BOUND('',#32,.T.);
#16=PLANE('',#79);
#17=PLANE('',#81);
#18=LINE('',#116,#20);
#19=LINE('',#125,#21);
#20=VECTOR('',#94,2.59999999999999);
#21=VECTOR('',#107,3.99999999999998);
#22=CYLINDRICAL_SURFACE('',#77,2.49999999999999);
#23=CYLINDRICAL_SURFACE('',#83,3.99999999999998);
#24=FACE_OUTER_BOUND('',#29,.T.);
#25=FACE_OUTER_BOUND('',#30,.T.);
#26=FACE_OUTER_BOUND('',#31,.T.);
#27=FACE_OUTER_BOUND('',#33,.T.);
#28=FACE_OUTER_BOUND('',#34,.T.);
#29=EDGE_LOOP('',(#52,#53,#54));
#30=EDGE_LOOP('',(#55,#56,#57,#58));
#31=EDGE_LOOP('',(#59));
#32=EDGE_LOOP('',(#60));
#33=EDGE_LOOP('',(#61));
#34=EDGE_LOOP('',(#62,#63,#64,#65));
#35=CIRCLE('',#75,2.49999999999999);
#36=CIRCLE('',#76,2.5);
#37=CIRCLE('',#78,2.49999999999999);
#38=CIRCLE('',#80,3.99999999999999);
#39=CIRCLE('',#82,3.99999999999998);
#40=VERTEX_POINT('',#110);
#41=VERTEX_POINT('',#112);
#42=VERTEX_POINT('',#115);
#43=VERTEX_POINT('',#119);
#44=VERTEX_POINT('',#122);
#45=EDGE_CURVE('',#40,#40,#35,.T.);
#46=EDGE_CURVE('',#40,#41,#36,.T.);
#47=EDGE_CURVE('',#40,#42,#18,.T.);
#48=EDGE_CURVE('',#42,#42,#37,.F.);
#49=EDGE_CURVE('',#43,#43,#38,.T.);
#50=EDGE_CURVE('',#44,#44,#39,.F.);
#51=EDGE_CURVE('',#43,#44,#19,.T.);
#52=ORIENTED_EDGE('',*,*,#45,.T.);
#53=ORIENTED_EDGE('',*,*,#46,.T.);
#54=ORIENTED_EDGE('',*,*,#46,.F.);
#55=ORIENTED_EDGE('',*,*,#45,.F.);
#56=ORIENTED_EDGE('',*,*,#47,.T.);
#57=ORIENTED_EDGE('',*,*,#48,.T.);
#58=ORIENTED_EDGE('',*,*,#47,.F.);
#59=ORIENTED_EDGE('',*,*,#49,.T.);
#60=ORIENTED_EDGE('',*,*,#48,.F.);
#61=ORIENTED_EDGE('',*,*,#50,.F.);
#62=ORIENTED_EDGE('',*,*,#49,.F.);
#63=ORIENTED_EDGE('',*,*,#51,.T.);
#64=ORIENTED_EDGE('',*,*,#50,.T.);
#65=ORIENTED_EDGE('',*,*,#51,.F.);
#66=SPHERICAL_SURFACE('',#74,2.5);
#67=ADVANCED_FACE('',(#24),#66,.T.);
#68=ADVANCED_FACE('',(#25),#22,.T.);
#69=ADVANCED_FACE('',(#26,#15),#16,.T.);
#70=ADVANCED_FACE('',(#27),#17,.T.);
#71=ADVANCED_FACE('',(#28),#23,.T.);
#72=CLOSED_SHELL('',(#67,#68,#69,#70,#71));
#73=AXIS2_PLACEMENT_3D('',#108,#84,#85);
#74=AXIS2_PLACEMENT_3D('',#109,#86,#87);
#75=AXIS2_PLACEMENT_3D('',#111,#88,#89);
#76=AXIS2_PLACEMENT_3D('',#113,#90,#91);
#77=AXIS2_PLACEMENT_3D('',#114,#92,#93);
#78=AXIS2_PLACEMENT_3D('',#117,#95,#96);
#79=AXIS2_PLACEMENT_3D('',#118,#97,#98);
#80=AXIS2_PLACEMENT_3D('',#120,#99,#100);
#81=AXIS2_PLACEMENT_3D('',#121,#101,#102);
#82=AXIS2_PLACEMENT_3D('',#123,#103,#104);
#83=AXIS2_PLACEMENT_3D('',#124,#105,#106);
#84=DIRECTION('axis',(0.,0.,1.));
#85=DIRECTION('refdir',(1.,0.,0.));
#86=DIRECTION('center_axis',(0.,0.,1.));
#87=DIRECTION('ref_axis',(1.,0.,0.));
#88=DIRECTION('center_axis',(0.0523359562429448,-9.61395919398574E-18,-0.998629534754574));
#89=DIRECTION('ref_axis',(0.998629534754574,-1.8344526949068E-16,0.0523359562429404));
#90=DIRECTION('center_axis',(1.22464679914735E-16,-1.,0.));
#91=DIRECTION('ref_axis',(-1.,-1.22464679914735E-16,0.));
#92=DIRECTION('center_axis',(0.0523359562429448,-9.61395919398574E-18,-0.998629534754574));
#93=DIRECTION('ref_axis',(0.998629534754574,-1.8344526949068E-16,0.0523359562429417));
#94=DIRECTION('',(-0.0523359562429448,9.61395919398574E-18,0.998629534754574));
#95=DIRECTION('center_axis',(-0.0523359562429448,9.61395919398574E-18,0.998629534754574));
#96=DIRECTION('ref_axis',(0.998629534754574,-1.8344526949068E-16,0.0523359562429417));
#97=DIRECTION('center_axis',(0.0523359562429448,-9.61395919398574E-18,-0.998629534754574));
#98=DIRECTION('ref_axis',(1.83697019872103E-16,1.,0.));
#99=DIRECTION('center_axis',(0.0523359562429448,-9.61395919398574E-18,-0.998629534754574));
#100=DIRECTION('ref_axis',(-1.83697019872103E-16,-1.,0.));
#101=DIRECTION('center_axis',(-0.0523359562429448,9.61395919398574E-18,
0.998629534754574));
#102=DIRECTION('ref_axis',(-1.83697019872103E-16,-1.,0.));
#103=DIRECTION('center_axis',(-0.0523359562429448,9.61395919398574E-18,
0.998629534754574));
#104=DIRECTION('ref_axis',(0.998629534754574,-1.8344526949068E-16,0.0523359562429417));
#105=DIRECTION('center_axis',(0.0523359562429448,-9.61395919398574E-18,
-0.998629534754574));
#106=DIRECTION('ref_axis',(0.998629534754574,-1.8344526949068E-16,0.0523359562429417));
#107=DIRECTION('',(-0.0523359562429448,9.61395919398574E-18,0.998629534754574));
#108=CARTESIAN_POINT('',(0.,0.,0.));
#109=CARTESIAN_POINT('Origin',(71.7850393436442,-1.31866977988291E-14,-40.0733740144705));
#110=CARTESIAN_POINT('',(69.2884655067577,-1.24219229253156E-14,-40.2042139050778));
#111=CARTESIAN_POINT('Origin',(71.7850393436442,-1.31866977988291E-14,-40.0733740144704));
#112=CARTESIAN_POINT('',(71.7850393436442,-1.31866977988291E-14,-42.5733740144705));
#113=CARTESIAN_POINT('Origin',(71.7850393436442,-1.31866977988291E-14,-40.0733740144705));
#114=CARTESIAN_POINT('Origin',(73.2242781403252,-1.34510816766637E-14,-67.5356862202213));
#115=CARTESIAN_POINT('',(68.7651059443283,-1.29381067329494E-14,-30.2179185575321));
#116=CARTESIAN_POINT('',(70.7277043034387,-1.26863068031502E-14,-67.6665261108286));
#117=CARTESIAN_POINT('Origin',(71.2616797812147,-1.30905582068892E-14,-30.0870786669248));
#118=CARTESIAN_POINT('Origin',(73.8581165715766,-1.3567515907565E-14,-29.9510051806931));
#119=CARTESIAN_POINT('',(67.2671616421965,-1.18669184092676E-14,-30.2964224918965));
#120=CARTESIAN_POINT('Origin',(71.2616797812147,-1.30905582068892E-14,-30.0870786669248));
#121=CARTESIAN_POINT('Origin',(74.9945181390183,-1.3776269488882E-14,-24.8845871681801));
#122=CARTESIAN_POINT('',(67.0054818609817,-1.27985660526155E-14,-25.3032748181237));
#123=CARTESIAN_POINT('Origin',(71.,-1.30424884109193E-14,-25.0939309931519));
#124=CARTESIAN_POINT('Origin',(71.1308398906074,-1.30665233089043E-14,-27.5905048300383));
#125=CARTESIAN_POINT('',(67.1363217515891,-1.18428835112826E-14,-27.7998486550101));
#126=UNCERTAINTY_MEASURE_WITH_UNIT(LENGTH_MEASURE(0.01),#130,
'DISTANCE_ACCURACY_VALUE',
'Maximum model space distance between geometric entities at asserted c
onnectivities');
#127=UNCERTAINTY_MEASURE_WITH_UNIT(LENGTH_MEASURE(0.01),#130,
'DISTANCE_ACCURACY_VALUE',
'Maximum model space distance between geometric entities at asserted c
onnectivities');
#128=(
GEOMETRIC_REPRESENTATION_CONTEXT(3)
GLOBAL_UNCERTAINTY_ASSIGNED_CONTEXT((#126))
GLOBAL_UNIT_ASSIGNED_CONTEXT((#130,#131,#132))
REPRESENTATION_CONTEXT('','3D')
);
#129=(
GEOMETRIC_REPRESENTATION_CONTEXT(3)
GLOBAL_UNCERTAINTY_ASSIGNED_CONTEXT((#127))
GLOBAL_UNIT_ASSIGNED_CONTEXT((#130,#131,#132))
REPRESENTATION_CONTEXT('','3D')
);
#130=(
LENGTH_UNIT()
NAMED_UNIT(*)
SI_UNIT(.MILLI.,.METRE.)
);
#131=(
NAMED_UNIT(*)
PLANE_ANGLE_UNIT()
SI_UNIT($,.RADIAN.)
);
#132=(
NAMED_UNIT(*)
SI_UNIT($,.STERADIAN.)
SOLID_ANGLE_UNIT()
);
#133=SHAPE_DEFINITION_REPRESENTATION(#134,#135);
#134=PRODUCT_DEFINITION_SHAPE('',$,#137);
#135=SHAPE_REPRESENTATION('',(#73),#128);
#136=PRODUCT_DEFINITION_CONTEXT('part definition',#141,'design');
#137=PRODUCT_DEFINITION('Mold cover','Mold cover v54',#138,#136);
#138=PRODUCT_DEFINITION_FORMATION('',$,#143);
#139=PRODUCT_RELATED_PRODUCT_CATEGORY('Mold cover v54','Mold cover v54',
(#143));
#140=APPLICATION_PROTOCOL_DEFINITION('international standard',
'automotive_design',2009,#141);
#141=APPLICATION_CONTEXT(
'Core Data for Automotive Mechanical Design Process');
#142=PRODUCT_CONTEXT('part definition',#141,'mechanical');
#143=PRODUCT('Mold cover','Mold cover v54',$,(#142));
#144=PRESENTATION_STYLE_ASSIGNMENT((#147));
#145=PRESENTATION_STYLE_ASSIGNMENT((#148));
#146=PRESENTATION_STYLE_ASSIGNMENT((#149));
#147=SURFACE_STYLE_USAGE(.BOTH.,#150);
#148=SURFACE_STYLE_USAGE(.BOTH.,#151);
#149=SURFACE_STYLE_USAGE(.BOTH.,#152);
#150=SURFACE_SIDE_STYLE('',(#153));
#151=SURFACE_SIDE_STYLE('',(#154));
#152=SURFACE_SIDE_STYLE('',(#155));
#153=SURFACE_STYLE_FILL_AREA(#156);
#154=SURFACE_STYLE_FILL_AREA(#157);
#155=SURFACE_STYLE_FILL_AREA(#158);
#156=FILL_AREA_STYLE('Steel - Satin',(#159));
#157=FILL_AREA_STYLE('Paint - Enamel Glossy (Blue)',(#160));
#158=FILL_AREA_STYLE('Paint - Enamel Glossy (Green)',(#161));
#159=FILL_AREA_STYLE_COLOUR('Steel - Satin',#162);
#160=FILL_AREA_STYLE_COLOUR('Paint - Enamel Glossy (Blue)',#163);
#161=FILL_AREA_STYLE_COLOUR('Paint - Enamel Glossy (Green)',#164);
#162=COLOUR_RGB('Steel - Satin',0.627450980392157,0.627450980392157,0.627450980392157);
#163=COLOUR_RGB('Paint - Enamel Glossy (Blue)',0.188235294117647,0.231372549019608,
0.588235294117647);
#164=COLOUR_RGB('Paint - Enamel Glossy (Green)',0.266666666666667,0.588235294117647,
0.282352941176471);
ENDSEC;
END-ISO-10303-21;
