ISO-10303-21;
HEADER;
FILE_DESCRIPTION (( 'STEP AP203' ),
    '1' );
FILE_NAME ('ROV-USI-014A-AXE MOBILE SUP.STEP',
    '2024-05-22T08:48:59',
    ( '' ),
    ( '' ),
    'SwSTEP 2.0',
    'SolidWorks 2016',
    '' );
FILE_SCHEMA (( 'CONFIG_CONTROL_DESIGN' ));
ENDSEC;

DATA;
#1 = DESIGN_CONTEXT ( 'detailed design', #49, 'design' ) ;
#2 = EDGE_CURVE ( 'NONE', #148, #153, #156, .T. ) ;
#3 = DIRECTION ( 'NONE',  ( 0.0000000000000000000, 0.0000000000000000000, 1.000000000000000000 ) ) ;
#4 = DIRECTION ( 'NONE',  ( 1.000000000000000000, 0.0000000000000000000, 0.0000000000000000000 ) ) ;
#5 = LINE ( 'NONE', #149, #98 ) ;
#6 = DIRECTION ( 'NONE',  ( 0.0000000000000000000, 0.0000000000000000000, 1.000000000000000000 ) ) ;
#7 = CARTESIAN_POINT ( 'NONE',  ( -2.500000000000000000, 0.0000000000000000000, 100.0000000000000000 ) ) ;
#8 = DATE_TIME_ROLE ( 'creation_date' ) ;
#9 = PERSON_AND_ORGANIZATION ( #64, #65 ) ;
#10 = ORIENTED_EDGE ( 'NONE', *, *, #144, .F. ) ;
#11 = LOCAL_TIME ( 10, 48, 59.00000000000000000, #145 ) ;
#12 = CC_DESIGN_APPROVAL ( #160, ( #150 ) ) ;
#13 = LINE ( 'NONE', #75, #31 ) ;
#14 =( NAMED_UNIT ( * ) PLANE_ANGLE_UNIT ( ) SI_UNIT ( $, .RADIAN. ) );
#15 = MECHANICAL_CONTEXT ( 'NONE', #131, 'mechanical' ) ;
#16 = DIRECTION ( 'NONE',  ( 1.000000000000000000, 0.0000000000000000000, 0.0000000000000000000 ) ) ;
#17 = PERSON_AND_ORGANIZATION_ROLE ( 'design_owner' ) ;
#18 = APPROVAL_ROLE ( '' ) ;
#19 = ORIENTED_EDGE ( 'NONE', *, *, #95, .F. ) ;
#20 = CC_DESIGN_PERSON_AND_ORGANIZATION_ASSIGNMENT ( #102, #140, ( #109 ) ) ;
#21 = DATE_AND_TIME ( #40, #93 ) ;
#22 = EDGE_LOOP ( 'NONE', ( #19, #99, #56, #89 ) ) ;
#23 = PERSON_AND_ORGANIZATION ( #64, #65 ) ;
#24 = SHAPE_DEFINITION_REPRESENTATION ( #169, #45 ) ;
#25 = FACE_OUTER_BOUND ( 'NONE', #32, .T. ) ;
#26 = DIRECTION ( 'NONE',  ( -0.0000000000000000000, -0.0000000000000000000, -1.000000000000000000 ) ) ;
#27 = APPROVAL_PERSON_ORGANIZATION ( #129, #66, #172 ) ;
#28 = CARTESIAN_POINT ( 'NONE',  ( 2.500000000000000000, 3.061616997868383100E-016, 100.0000000000000000 ) ) ;
#29 = CARTESIAN_POINT ( 'NONE',  ( 0.0000000000000000000, 0.0000000000000000000, 100.0000000000000000 ) ) ;
#30 = DIRECTION ( 'NONE',  ( 1.000000000000000000, 0.0000000000000000000, 0.0000000000000000000 ) ) ;
#31 = VECTOR ( 'NONE', #120, 1000.000000000000000 ) ;
#32 = EDGE_LOOP ( 'NONE', ( #143, #62, #167, #39 ) ) ;
#33 = DIRECTION ( 'NONE',  ( -0.0000000000000000000, -0.0000000000000000000, -1.000000000000000000 ) ) ;
#34 = CALENDAR_DATE ( 2024, 22, 5 ) ;
#35 = SECURITY_CLASSIFICATION_LEVEL ( 'unclassified' ) ;
#36 = AXIS2_PLACEMENT_3D ( 'NONE', #107, #84, #108 ) ;
#37 = PERSON_AND_ORGANIZATION_ROLE ( 'classification_officer' ) ;
#38 = AXIS2_PLACEMENT_3D ( 'NONE', #81, #147, #165 ) ;
#39 = ORIENTED_EDGE ( 'NONE', *, *, #135, .F. ) ;
#40 = CALENDAR_DATE ( 2024, 22, 5 ) ;
#41 = FACE_OUTER_BOUND ( 'NONE', #104, .T. ) ;
#42 = ORIENTED_EDGE ( 'NONE', *, *, #2, .T. ) ;
#43 = DATE_AND_TIME ( #79, #11 ) ;
#44 = AXIS2_PLACEMENT_3D ( 'NONE', #111, #164, #134 ) ;
#45 = ADVANCED_BREP_SHAPE_REPRESENTATION ( 'ROV-USI-014A-AXE MOBILE SUP', ( #69, #38 ), #136 ) ;
#46 = APPROVAL_PERSON_ORGANIZATION ( #51, #160, #18 ) ;
#47 = CYLINDRICAL_SURFACE ( 'NONE', #115, 2.500000000000000000 ) ;
#48 = ADVANCED_FACE ( 'NONE', ( #25 ), #47, .T. ) ;
#49 = APPLICATION_CONTEXT ( 'configuration controlled 3d designs of mechanical parts and assemblies' ) ;
#50 = ADVANCED_FACE ( 'NONE', ( #53 ), #119, .T. ) ;
#51 = PERSON_AND_ORGANIZATION ( #64, #65 ) ;
#52 = CC_DESIGN_PERSON_AND_ORGANIZATION_ASSIGNMENT ( #9, #17, ( #113 ) ) ;
#53 = FACE_OUTER_BOUND ( 'NONE', #22, .T. ) ;
#54 = CARTESIAN_POINT ( 'NONE',  ( 0.0000000000000000000, 0.0000000000000000000, 100.0000000000000000 ) ) ;
#55 = CLOSED_SHELL ( 'NONE', ( #48, #50, #88, #71 ) ) ;
#56 = ORIENTED_EDGE ( 'NONE', *, *, #135, .T. ) ;
#57 =( LENGTH_UNIT ( ) NAMED_UNIT ( * ) SI_UNIT ( .MILLI., .METRE. ) );
#58 = CARTESIAN_POINT ( 'NONE',  ( 2.500000000000000000, 3.061616997868383100E-016, -100.0000000000000000 ) ) ;
#59 = CC_DESIGN_PERSON_AND_ORGANIZATION_ASSIGNMENT ( #139, #168, ( #150 ) ) ;
#60 = DIRECTION ( 'NONE',  ( 1.000000000000000000, 0.0000000000000000000, 0.0000000000000000000 ) ) ;
#61 = UNCERTAINTY_MEASURE_WITH_UNIT (LENGTH_MEASURE( 1.000000000000000100E-005 ), #57, 'distance_accuracy_value', 'NONE');
#62 = ORIENTED_EDGE ( 'NONE', *, *, #95, .T. ) ;
#63 = DATE_TIME_ROLE ( 'classification_date' ) ;
#64 = PERSON ( 'UNSPECIFIED', 'UNSPECIFIED', 'UNSPECIFIED', ('UNSPECIFIED'), ('UNSPECIFIED'), ('UNSPECIFIED') ) ;
#65 = ORGANIZATION ( 'UNSPECIFIED', 'UNSPECIFIED', '' ) ;
#66 = APPROVAL ( #76, 'UNSPECIFIED' ) ;
#67 = CARTESIAN_POINT ( 'NONE',  ( 0.0000000000000000000, 0.0000000000000000000, 100.0000000000000000 ) ) ;
#68 = COORDINATED_UNIVERSAL_TIME_OFFSET ( 1, 0, .AHEAD. ) ;
#69 = MANIFOLD_SOLID_BREP ( 'Boss.-Extru.1', #55 ) ;
#70 = DIRECTION ( 'NONE',  ( -1.000000000000000000, 0.0000000000000000000, 0.0000000000000000000 ) ) ;
#71 = ADVANCED_FACE ( 'NONE', ( #116 ), #72, .F. ) ;
#72 = PLANE ( 'NONE',  #44 ) ;
#73 = CIRCLE ( 'NONE', #162, 2.500000000000000000 ) ;
#74 =( NAMED_UNIT ( * ) SI_UNIT ( $, .STERADIAN. ) SOLID_ANGLE_UNIT ( ) );
#75 = CARTESIAN_POINT ( 'NONE',  ( -2.500000000000000000, 0.0000000000000000000, 100.0000000000000000 ) ) ;
#76 = APPROVAL_STATUS ( 'not_yet_approved' ) ;
#77 = SECURITY_CLASSIFICATION ( '', '', #35 ) ;
#78 = PERSON_AND_ORGANIZATION ( #64, #65 ) ;
#79 = CALENDAR_DATE ( 2024, 22, 5 ) ;
#80 = VERTEX_POINT ( 'NONE', #110 ) ;
#81 = CARTESIAN_POINT ( 'NONE',  ( 0.0000000000000000000, 0.0000000000000000000, 0.0000000000000000000 ) ) ;
#82 = DIRECTION ( 'NONE',  ( 1.000000000000000000, 0.0000000000000000000, -0.0000000000000000000 ) ) ;
#83 = APPROVAL ( #155, 'UNSPECIFIED' ) ;
#84 = DIRECTION ( 'NONE',  ( -0.0000000000000000000, -0.0000000000000000000, -1.000000000000000000 ) ) ;
#85 = APPROVAL_PERSON_ORGANIZATION ( #23, #83, #157 ) ;
#86 = APPROVAL_STATUS ( 'not_yet_approved' ) ;
#87 = APPROVAL_DATE_TIME ( #43, #160 ) ;
#88 = ADVANCED_FACE ( 'NONE', ( #41 ), #130, .T. ) ;
#89 = ORIENTED_EDGE ( 'NONE', *, *, #106, .T. ) ;
#90 = PERSON_AND_ORGANIZATION_ROLE ( 'design_supplier' ) ;
#91 = DATE_AND_TIME ( #132, #138 ) ;
#92 = CC_DESIGN_APPROVAL ( #66, ( #109 ) ) ;
#93 = LOCAL_TIME ( 10, 48, 59.00000000000000000, #170 ) ;
#94 = ORIENTED_EDGE ( 'NONE', *, *, #106, .F. ) ;
#95 = EDGE_CURVE ( 'NONE', #153, #171, #5, .T. ) ;
#96 = DIRECTION ( 'NONE',  ( 0.0000000000000000000, 0.0000000000000000000, 1.000000000000000000 ) ) ;
#97 = APPLICATION_PROTOCOL_DEFINITION ( 'international standard', 'config_control_design', 1994, #131 ) ;
#98 = VECTOR ( 'NONE', #33, 1000.000000000000000 ) ;
#99 = ORIENTED_EDGE ( 'NONE', *, *, #2, .F. ) ;
#100 = DIRECTION ( 'NONE',  ( 0.0000000000000000000, 0.0000000000000000000, 1.000000000000000000 ) ) ;
#101 = EDGE_CURVE ( 'NONE', #153, #148, #142, .T. ) ;
#102 = PERSON_AND_ORGANIZATION ( #64, #65 ) ;
#103 = AXIS2_PLACEMENT_3D ( 'NONE', #29, #96, #82 ) ;
#104 = EDGE_LOOP ( 'NONE', ( #42, #125 ) ) ;
#105 = CIRCLE ( 'NONE', #118, 2.500000000000000000 ) ;
#106 = EDGE_CURVE ( 'NONE', #80, #171, #105, .T. ) ;
#107 = CARTESIAN_POINT ( 'NONE',  ( 0.0000000000000000000, 0.0000000000000000000, 100.0000000000000000 ) ) ;
#108 = DIRECTION ( 'NONE',  ( -1.000000000000000000, 0.0000000000000000000, 0.0000000000000000000 ) ) ;
#109 = PRODUCT_DEFINITION_FORMATION_WITH_SPECIFIED_SOURCE ( 'ANY', '', #113, .NOT_KNOWN. ) ;
#110 = CARTESIAN_POINT ( 'NONE',  ( -2.500000000000000000, 0.0000000000000000000, -100.0000000000000000 ) ) ;
#111 = CARTESIAN_POINT ( 'NONE',  ( 0.0000000000000000000, 0.0000000000000000000, -100.0000000000000000 ) ) ;
#112 = CC_DESIGN_PERSON_AND_ORGANIZATION_ASSIGNMENT ( #161, #90, ( #109 ) ) ;
#113 = PRODUCT ( 'ROV-USI-014A-AXE MOBILE SUP', 'ROV-USI-014A-AXE MOBILE SUP', '', ( #15 ) ) ;
#114 = CALENDAR_DATE ( 2024, 22, 5 ) ;
#115 = AXIS2_PLACEMENT_3D ( 'NONE', #54, #26, #70 ) ;
#116 = FACE_OUTER_BOUND ( 'NONE', #163, .T. ) ;
#117 = CC_DESIGN_DATE_AND_TIME_ASSIGNMENT ( #91, #63, ( #77 ) ) ;
#118 = AXIS2_PLACEMENT_3D ( 'NONE', #133, #152, #30 ) ;
#119 = CYLINDRICAL_SURFACE ( 'NONE', #36, 2.500000000000000000 ) ;
#120 = DIRECTION ( 'NONE',  ( -0.0000000000000000000, -0.0000000000000000000, -1.000000000000000000 ) ) ;
#121 = CARTESIAN_POINT ( 'NONE',  ( 0.0000000000000000000, 0.0000000000000000000, 100.0000000000000000 ) ) ;
#122 = CARTESIAN_POINT ( 'NONE',  ( 0.0000000000000000000, 0.0000000000000000000, -100.0000000000000000 ) ) ;
#123 = CC_DESIGN_SECURITY_CLASSIFICATION ( #77, ( #109 ) ) ;
#124 = APPROVAL_DATE_TIME ( #128, #83 ) ;
#125 = ORIENTED_EDGE ( 'NONE', *, *, #101, .T. ) ;
#126 = CC_DESIGN_PERSON_AND_ORGANIZATION_ASSIGNMENT ( #78, #37, ( #77 ) ) ;
#127 = AXIS2_PLACEMENT_3D ( 'NONE', #121, #6, #16 ) ;
#128 = DATE_AND_TIME ( #114, #159 ) ;
#129 = PERSON_AND_ORGANIZATION ( #64, #65 ) ;
#130 = PLANE ( 'NONE',  #103 ) ;
#131 = APPLICATION_CONTEXT ( 'configuration controlled 3d designs of mechanical parts and assemblies' ) ;
#132 = CALENDAR_DATE ( 2024, 22, 5 ) ;
#133 = CARTESIAN_POINT ( 'NONE',  ( 0.0000000000000000000, 0.0000000000000000000, -100.0000000000000000 ) ) ;
#134 = DIRECTION ( 'NONE',  ( 1.000000000000000000, 0.0000000000000000000, -0.0000000000000000000 ) ) ;
#135 = EDGE_CURVE ( 'NONE', #148, #80, #13, .T. ) ;
#136 =( GEOMETRIC_REPRESENTATION_CONTEXT ( 3 ) GLOBAL_UNCERTAINTY_ASSIGNED_CONTEXT ( ( #61 ) ) GLOBAL_UNIT_ASSIGNED_CONTEXT ( ( #57, #14, #74 ) ) REPRESENTATION_CONTEXT ( 'NONE', 'WORKASPACE' ) );
#137 = CC_DESIGN_APPROVAL ( #83, ( #77 ) ) ;
#138 = LOCAL_TIME ( 10, 48, 59.00000000000000000, #166 ) ;
#139 = PERSON_AND_ORGANIZATION ( #64, #65 ) ;
#140 = PERSON_AND_ORGANIZATION_ROLE ( 'creator' ) ;
#141 = AXIS2_PLACEMENT_3D ( 'NONE', #67, #3, #4 ) ;
#142 = CIRCLE ( 'NONE', #127, 2.500000000000000000 ) ;
#143 = ORIENTED_EDGE ( 'NONE', *, *, #101, .F. ) ;
#144 = EDGE_CURVE ( 'NONE', #171, #80, #73, .T. ) ;
#145 = COORDINATED_UNIVERSAL_TIME_OFFSET ( 1, 0, .AHEAD. ) ;
#146 = LOCAL_TIME ( 10, 48, 59.00000000000000000, #68 ) ;
#147 = DIRECTION ( 'NONE',  ( 0.0000000000000000000, 0.0000000000000000000, 1.000000000000000000 ) ) ;
#148 = VERTEX_POINT ( 'NONE', #7 ) ;
#149 = CARTESIAN_POINT ( 'NONE',  ( 2.500000000000000000, 3.061616997868383100E-016, 100.0000000000000000 ) ) ;
#150 = PRODUCT_DEFINITION ( 'UNKNOWN', '', #109, #1 ) ;
#151 = APPROVAL_DATE_TIME ( #21, #66 ) ;
#152 = DIRECTION ( 'NONE',  ( 0.0000000000000000000, 0.0000000000000000000, 1.000000000000000000 ) ) ;
#153 = VERTEX_POINT ( 'NONE', #28 ) ;
#154 = APPLICATION_PROTOCOL_DEFINITION ( 'international standard', 'config_control_design', 1994, #49 ) ;
#155 = APPROVAL_STATUS ( 'not_yet_approved' ) ;
#156 = CIRCLE ( 'NONE', #141, 2.500000000000000000 ) ;
#157 = APPROVAL_ROLE ( '' ) ;
#158 = PRODUCT_RELATED_PRODUCT_CATEGORY ( 'detail', '', ( #113 ) ) ;
#159 = LOCAL_TIME ( 10, 48, 59.00000000000000000, #174 ) ;
#160 = APPROVAL ( #86, 'UNSPECIFIED' ) ;
#161 = PERSON_AND_ORGANIZATION ( #64, #65 ) ;
#162 = AXIS2_PLACEMENT_3D ( 'NONE', #122, #100, #60 ) ;
#163 = EDGE_LOOP ( 'NONE', ( #94, #10 ) ) ;
#164 = DIRECTION ( 'NONE',  ( 0.0000000000000000000, 0.0000000000000000000, 1.000000000000000000 ) ) ;
#165 = DIRECTION ( 'NONE',  ( 1.000000000000000000, 0.0000000000000000000, 0.0000000000000000000 ) ) ;
#166 = COORDINATED_UNIVERSAL_TIME_OFFSET ( 1, 0, .AHEAD. ) ;
#167 = ORIENTED_EDGE ( 'NONE', *, *, #144, .T. ) ;
#168 = PERSON_AND_ORGANIZATION_ROLE ( 'creator' ) ;
#169 = PRODUCT_DEFINITION_SHAPE ( 'NONE', 'NONE',  #150 ) ;
#170 = COORDINATED_UNIVERSAL_TIME_OFFSET ( 1, 0, .AHEAD. ) ;
#171 = VERTEX_POINT ( 'NONE', #58 ) ;
#172 = APPROVAL_ROLE ( '' ) ;
#173 = CC_DESIGN_DATE_AND_TIME_ASSIGNMENT ( #175, #8, ( #150 ) ) ;
#174 = COORDINATED_UNIVERSAL_TIME_OFFSET ( 1, 0, .AHEAD. ) ;
#175 = DATE_AND_TIME ( #34, #146 ) ;
ENDSEC;
END-ISO-10303-21;
