ISO-10303-21;
HEADER;
FILE_DESCRIPTION (( 'STEP AP203' ),
    '1' );
FILE_NAME ('ROV-USI-021A-SUPP RESSORTS.STEP',
    '2024-05-22T12:31:34',
    ( '' ),
    ( '' ),
    'SwSTEP 2.0',
    'SolidWorks 2016',
    '' );
FILE_SCHEMA (( 'CONFIG_CONTROL_DESIGN' ));
ENDSEC;

DATA;
#1 = FACE_OUTER_BOUND ( 'NONE', #128, .T. ) ;
#2 = VERTEX_POINT ( 'NONE', #296 ) ;
#3 = APPROVAL_STATUS ( 'not_yet_approved' ) ;
#4 = AXIS2_PLACEMENT_3D ( 'NONE', #208, #382, #80 ) ;
#5 = APPROVAL_ROLE ( '' ) ;
#6 = ORIENTED_EDGE ( 'NONE', *, *, #247, .T. ) ;
#7 = EDGE_CURVE ( 'NONE', #245, #121, #248, .T. ) ;
#8 = CIRCLE ( 'NONE', #191, 1.649999999999988400 ) ;
#9 = ORIENTED_EDGE ( 'NONE', *, *, #209, .T. ) ;
#10 = APPROVAL ( #172, 'UNSPECIFIED' ) ;
#11 = FACE_BOUND ( 'NONE', #233, .T. ) ;
#12 = ORIENTED_EDGE ( 'NONE', *, *, #59, .F. ) ;
#13 = COORDINATED_UNIVERSAL_TIME_OFFSET ( 1, 0, .AHEAD. ) ;
#14 = CARTESIAN_POINT ( 'NONE',  ( 30.50000000000000400, 0.0000000000000000000, -1.649999999999997700 ) ) ;
#15 = EDGE_LOOP ( 'NONE', ( #142, #58 ) ) ;
#16 = AXIS2_PLACEMENT_3D ( 'NONE', #168, #49, #234 ) ;
#17 = DIRECTION ( 'NONE',  ( 0.0000000000000000000, 0.0000000000000000000, -1.000000000000000000 ) ) ;
#18 = AXIS2_PLACEMENT_3D ( 'NONE', #109, #288, #225 ) ;
#19 = DIRECTION ( 'NONE',  ( -0.5150380749100592600, 1.049727191138615000E-016, -0.8571673007021092200 ) ) ;
#20 = CYLINDRICAL_SURFACE ( 'NONE', #214, 3.000000000000000400 ) ;
#21 = EDGE_LOOP ( 'NONE', ( #380, #308, #6 ) ) ;
#22 = AXIS2_PLACEMENT_3D ( 'NONE', #333, #113, #143 ) ;
#23 = DIRECTION ( 'NONE',  ( 1.000000000000000000, -0.0000000000000000000, -0.0000000000000000000 ) ) ;
#24 = DIRECTION ( 'NONE',  ( 1.000000000000000000, -0.0000000000000000000, -0.0000000000000000000 ) ) ;
#25 = DIRECTION ( 'NONE',  ( -1.000000000000000000, -0.0000000000000000000, -0.0000000000000000000 ) ) ;
#26 = CARTESIAN_POINT ( 'NONE',  ( 42.00000000000000000, 0.0000000000000000000, -1.649999999999989900 ) ) ;
#27 = ORIENTED_EDGE ( 'NONE', *, *, #326, .F. ) ;
#28 = APPROVAL_ROLE ( '' ) ;
#29 = CC_DESIGN_APPROVAL ( #10, ( #280 ) ) ;
#30 = CYLINDRICAL_SURFACE ( 'NONE', #304, 1.649999999999993900 ) ;
#31 = ORIENTED_EDGE ( 'NONE', *, *, #84, .T. ) ;
#32 = CARTESIAN_POINT ( 'NONE',  ( 42.00000000000000000, 0.0000000000000000000, 0.0000000000000000000 ) ) ;
#33 = FACE_OUTER_BOUND ( 'NONE', #15, .T. ) ;
#34 = ADVANCED_FACE ( 'NONE', ( #1 ), #114, .F. ) ;
#35 = DESIGN_CONTEXT ( 'detailed design', #270, 'design' ) ;
#36 = FACE_OUTER_BOUND ( 'NONE', #200, .T. ) ;
#37 = ORIENTED_EDGE ( 'NONE', *, *, #367, .T. ) ;
#38 = AXIS2_PLACEMENT_3D ( 'NONE', #299, #297, #50 ) ;
#39 = COORDINATED_UNIVERSAL_TIME_OFFSET ( 1, 0, .AHEAD. ) ;
#40 = LINE ( 'NONE', #82, #302 ) ;
#41 = PRODUCT_RELATED_PRODUCT_CATEGORY ( 'detail', '', ( #116 ) ) ;
#42 = CYLINDRICAL_SURFACE ( 'NONE', #190, 1.649999999999993900 ) ;
#43 = ORIENTED_EDGE ( 'NONE', *, *, #235, .T. ) ;
#44 = ORIENTED_EDGE ( 'NONE', *, *, #7, .F. ) ;
#45 = DIRECTION ( 'NONE',  ( 0.0000000000000000000, 0.0000000000000000000, -1.000000000000000000 ) ) ;
#46 = CC_DESIGN_PERSON_AND_ORGANIZATION_ASSIGNMENT ( #231, #83, ( #280 ) ) ;
#47 = CARTESIAN_POINT ( 'NONE',  ( -42.00000000000000000, 0.0000000000000000000, 1.649999999999989900 ) ) ;
#48 = DIRECTION ( 'NONE',  ( 0.0000000000000000000, 0.0000000000000000000, -1.000000000000000000 ) ) ;
#49 = DIRECTION ( 'NONE',  ( -1.000000000000000000, -0.0000000000000000000, -0.0000000000000000000 ) ) ;
#50 = DIRECTION ( 'NONE',  ( 0.0000000000000000000, 0.0000000000000000000, 1.000000000000000000 ) ) ;
#51 = DIRECTION ( 'NONE',  ( 1.000000000000000000, -0.0000000000000000000, -0.0000000000000000000 ) ) ;
#52 = ORIENTED_EDGE ( 'NONE', *, *, #186, .T. ) ;
#53 = CARTESIAN_POINT ( 'NONE',  ( -42.00000000000000000, 0.0000000000000000000, 0.0000000000000000000 ) ) ;
#54 = CARTESIAN_POINT ( 'NONE',  ( -42.00000000000000000, 2.020667218593120400E-016, -1.649999999999989700 ) ) ;
#55 = MECHANICAL_CONTEXT ( 'NONE', #90, 'mechanical' ) ;
#56 = CIRCLE ( 'NONE', #79, 1.649999999999997700 ) ;
#57 = CARTESIAN_POINT ( 'NONE',  ( -42.00000000000000000, 0.0000000000000000000, 3.000000000000000400 ) ) ;
#58 = ORIENTED_EDGE ( 'NONE', *, *, #179, .F. ) ;
#59 = EDGE_CURVE ( 'NONE', #328, #353, #282, .T. ) ;
#60 = DIRECTION ( 'NONE',  ( 0.0000000000000000000, 0.0000000000000000000, -1.000000000000000000 ) ) ;
#61 = ORIENTED_EDGE ( 'NONE', *, *, #306, .T. ) ;
#62 = CYLINDRICAL_SURFACE ( 'NONE', #129, 1.649999999999989300 ) ;
#63 = LINE ( 'NONE', #73, #180 ) ;
#64 = EDGE_LOOP ( 'NONE', ( #365, #221, #215 ) ) ;
#65 = PERSON_AND_ORGANIZATION ( #91, #184 ) ;
#66 = ORIENTED_EDGE ( 'NONE', *, *, #59, .T. ) ;
#67 = AXIS2_PLACEMENT_3D ( 'NONE', #78, #230, #256 ) ;
#68 = DATE_AND_TIME ( #244, #155 ) ;
#69 = AXIS2_PLACEMENT_3D ( 'NONE', #175, #93, #301 ) ;
#70 = ORIENTED_EDGE ( 'NONE', *, *, #367, .F. ) ;
#71 = CARTESIAN_POINT ( 'NONE',  ( -29.50857997860452600, -3.059515509201426700E-015, 0.0000000000000000000 ) ) ;
#72 = DIRECTION ( 'NONE',  ( -1.000000000000000000, -0.0000000000000000000, -0.0000000000000000000 ) ) ;
#73 = CARTESIAN_POINT ( 'NONE',  ( 42.00000000000000000, 2.020667218593125400E-016, 1.649999999999993900 ) ) ;
#74 = CARTESIAN_POINT ( 'NONE',  ( 42.00000000000000000, 0.0000000000000000000, 3.000000000000000400 ) ) ;
#75 = CARTESIAN_POINT ( 'NONE',  ( 42.00000000000000000, 0.0000000000000000000, 3.000000000000000400 ) ) ;
#76 = PERSON_AND_ORGANIZATION ( #91, #184 ) ;
#77 = VERTEX_POINT ( 'NONE', #71 ) ;
#78 = CARTESIAN_POINT ( 'NONE',  ( -42.00000000000000000, 0.0000000000000000000, 0.0000000000000000000 ) ) ;
#79 = AXIS2_PLACEMENT_3D ( 'NONE', #136, #381, #137 ) ;
#80 = DIRECTION ( 'NONE',  ( 0.0000000000000000000, 0.0000000000000000000, -1.000000000000000000 ) ) ;
#81 = DIRECTION ( 'NONE',  ( 0.0000000000000000000, 0.0000000000000000000, -1.000000000000000000 ) ) ;
#82 = CARTESIAN_POINT ( 'NONE',  ( 30.50000000000000400, 2.020667218593129800E-016, 1.649999999999997700 ) ) ;
#83 = PERSON_AND_ORGANIZATION_ROLE ( 'creator' ) ;
#84 = EDGE_CURVE ( 'NONE', #218, #154, #135, .T. ) ;
#85 = CARTESIAN_POINT ( 'NONE',  ( 42.00000000000000000, 2.020667218593122900E-016, 1.649999999999989900 ) ) ;
#86 = DIRECTION ( 'NONE',  ( 1.000000000000000000, -0.0000000000000000000, -0.0000000000000000000 ) ) ;
#87 = PERSON_AND_ORGANIZATION ( #91, #184 ) ;
#88 = VERTEX_POINT ( 'NONE', #47 ) ;
#89 = EDGE_LOOP ( 'NONE', ( #44, #9, #43 ) ) ;
#90 = APPLICATION_CONTEXT ( 'configuration controlled 3d designs of mechanical parts and assemblies' ) ;
#91 = PERSON ( 'UNSPECIFIED', 'UNSPECIFIED', 'UNSPECIFIED', ('UNSPECIFIED'), ('UNSPECIFIED'), ('UNSPECIFIED') ) ;
#92 = DATE_TIME_ROLE ( 'classification_date' ) ;
#93 = DIRECTION ( 'NONE',  ( 1.000000000000000000, -0.0000000000000000000, -0.0000000000000000000 ) ) ;
#94 = AXIS2_PLACEMENT_3D ( 'NONE', #324, #72, #264 ) ;
#95 = CIRCLE ( 'NONE', #69, 1.649999999999997700 ) ;
#96 = EDGE_LOOP ( 'NONE', ( #336, #241, #61, #371 ) ) ;
#97 = AXIS2_PLACEMENT_3D ( 'NONE', #163, #145, #210 ) ;
#98 = EDGE_CURVE ( 'NONE', #313, #2, #8, .T. ) ;
#99 = VECTOR ( 'NONE', #110, 1000.000000000000000 ) ;
#100 = ORIENTED_EDGE ( 'NONE', *, *, #7, .T. ) ;
#101 = COORDINATED_UNIVERSAL_TIME_OFFSET ( 1, 0, .AHEAD. ) ;
#102 = EDGE_CURVE ( 'NONE', #154, #218, #217, .T. ) ;
#103 = DATE_AND_TIME ( #149, #281 ) ;
#104 = ORIENTED_EDGE ( 'NONE', *, *, #201, .T. ) ;
#105 = DIRECTION ( 'NONE',  ( 0.5150380749100558200, 0.0000000000000000000, -0.8571673007021113300 ) ) ;
#106 = CARTESIAN_POINT ( 'NONE',  ( -30.50000000000000700, 0.0000000000000000000, 0.0000000000000000000 ) ) ;
#107 = VECTOR ( 'NONE', #25, 1000.000000000000000 ) ;
#108 = EDGE_LOOP ( 'NONE', ( #162, #70, #104, #211 ) ) ;
#109 = CARTESIAN_POINT ( 'NONE',  ( 42.00000000000000000, 0.0000000000000000000, 0.0000000000000000000 ) ) ;
#110 = DIRECTION ( 'NONE',  ( -1.000000000000000000, -0.0000000000000000000, -0.0000000000000000000 ) ) ;
#111 = DIRECTION ( 'NONE',  ( 0.0000000000000000000, 0.0000000000000000000, -1.000000000000000000 ) ) ;
#112 = DIRECTION ( 'NONE',  ( -1.000000000000000000, -0.0000000000000000000, -0.0000000000000000000 ) ) ;
#113 = DIRECTION ( 'NONE',  ( -1.000000000000000000, -0.0000000000000000000, -0.0000000000000000000 ) ) ;
#114 = CONICAL_SURFACE ( 'NONE', #350, 1.649999999999997700, 1.029744258676652500 ) ;
#115 = CARTESIAN_POINT ( 'NONE',  ( 42.00000000000000000, 3.673940397442059900E-016, -3.000000000000000400 ) ) ;
#116 = PRODUCT ( 'ROV-USI-021A-SUPP RESSORTS', 'ROV-USI-021A-SUPP RESSORTS', '', ( #55 ) ) ;
#117 = CC_DESIGN_PERSON_AND_ORGANIZATION_ASSIGNMENT ( #379, #176, ( #329 ) ) ;
#118 = DATE_TIME_ROLE ( 'creation_date' ) ;
#119 = DIRECTION ( 'NONE',  ( 0.0000000000000000000, 0.0000000000000000000, -1.000000000000000000 ) ) ;
#120 = LINE ( 'NONE', #331, #272 ) ;
#121 = VERTEX_POINT ( 'NONE', #14 ) ;
#122 = CC_DESIGN_SECURITY_CLASSIFICATION ( #329, ( #251 ) ) ;
#123 = ADVANCED_FACE ( 'NONE', ( #287 ), #20, .T. ) ;
#124 = PERSON_AND_ORGANIZATION ( #91, #184 ) ;
#125 = CYLINDRICAL_SURFACE ( 'NONE', #67, 1.649999999999989300 ) ;
#126 = FACE_OUTER_BOUND ( 'NONE', #188, .T. ) ;
#127 = VECTOR ( 'NONE', #105, 1000.000000000000000 ) ;
#128 = EDGE_LOOP ( 'NONE', ( #349, #100, #37 ) ) ;
#129 = AXIS2_PLACEMENT_3D ( 'NONE', #53, #265, #366 ) ;
#130 = DATE_AND_TIME ( #257, #307 ) ;
#131 = PERSON_AND_ORGANIZATION ( #91, #184 ) ;
#132 = VERTEX_POINT ( 'NONE', #261 ) ;
#133 =( GEOMETRIC_REPRESENTATION_CONTEXT ( 3 ) GLOBAL_UNCERTAINTY_ASSIGNED_CONTEXT ( ( #358 ) ) GLOBAL_UNIT_ASSIGNED_CONTEXT ( ( #268, #242, #338 ) ) REPRESENTATION_CONTEXT ( 'NONE', 'WORKASPACE' ) );
#134 = VECTOR ( 'NONE', #147, 1000.000000000000000 ) ;
#135 = CIRCLE ( 'NONE', #314, 1.649999999999989900 ) ;
#136 = CARTESIAN_POINT ( 'NONE',  ( 30.50000000000000400, 0.0000000000000000000, 0.0000000000000000000 ) ) ;
#137 = DIRECTION ( 'NONE',  ( 0.0000000000000000000, 0.0000000000000000000, -1.000000000000000000 ) ) ;
#138 = SHAPE_DEFINITION_REPRESENTATION ( #279, #139 ) ;
#139 = ADVANCED_BREP_SHAPE_REPRESENTATION ( 'ROV-USI-021A-SUPP RESSORTS', ( #222, #177 ), #133 ) ;
#140 = AXIS2_PLACEMENT_3D ( 'NONE', #232, #141, #81 ) ;
#141 = DIRECTION ( 'NONE',  ( 1.000000000000000000, 0.0000000000000000000, 0.0000000000000000000 ) ) ;
#142 = ORIENTED_EDGE ( 'NONE', *, *, #219, .F. ) ;
#143 = DIRECTION ( 'NONE',  ( 0.0000000000000000000, 0.0000000000000000000, 1.000000000000000000 ) ) ;
#144 = ADVANCED_FACE ( 'NONE', ( #185 ), #146, .T. ) ;
#145 = DIRECTION ( 'NONE',  ( 1.000000000000000000, 0.0000000000000000000, 0.0000000000000000000 ) ) ;
#146 = CYLINDRICAL_SURFACE ( 'NONE', #18, 3.000000000000000400 ) ;
#147 = DIRECTION ( 'NONE',  ( -1.000000000000000000, -0.0000000000000000000, -0.0000000000000000000 ) ) ;
#148 = VERTEX_POINT ( 'NONE', #54 ) ;
#149 = CALENDAR_DATE ( 2024, 22, 5 ) ;
#150 = CLOSED_SHELL ( 'NONE', ( #277, #293, #345, #246, #123, #144, #164, #341, #34, #273, #309, #343 ) ) ;
#151 = EDGE_CURVE ( 'NONE', #292, #218, #63, .T. ) ;
#152 = CALENDAR_DATE ( 2024, 22, 5 ) ;
#153 = FACE_OUTER_BOUND ( 'NONE', #21, .T. ) ;
#154 = VERTEX_POINT ( 'NONE', #26 ) ;
#155 = LOCAL_TIME ( 14, 31, 34.00000000000000000, #39 ) ;
#156 = EDGE_LOOP ( 'NONE', ( #317, #253 ) ) ;
#157 = AXIS2_PLACEMENT_3D ( 'NONE', #359, #352, #48 ) ;
#158 = APPROVAL_PERSON_ORGANIZATION ( #124, #285, #28 ) ;
#159 = APPROVAL_DATE_TIME ( #224, #276 ) ;
#160 = CIRCLE ( 'NONE', #22, 1.649999999999989900 ) ;
#161 = DIRECTION ( 'NONE',  ( 1.000000000000000000, -0.0000000000000000000, -0.0000000000000000000 ) ) ;
#162 = ORIENTED_EDGE ( 'NONE', *, *, #151, .F. ) ;
#163 = CARTESIAN_POINT ( 'NONE',  ( -42.00000000000000000, 0.0000000000000000000, 0.0000000000000000000 ) ) ;
#164 = ADVANCED_FACE ( 'NONE', ( #334, #346 ), #171, .T. ) ;
#165 = DIRECTION ( 'NONE',  ( 0.0000000000000000000, 0.0000000000000000000, -1.000000000000000000 ) ) ;
#166 = FACE_OUTER_BOUND ( 'NONE', #64, .T. ) ;
#167 = ORIENTED_EDGE ( 'NONE', *, *, #326, .T. ) ;
#168 = CARTESIAN_POINT ( 'NONE',  ( -30.50000000000000700, 0.0000000000000000000, 0.0000000000000000000 ) ) ;
#169 = CARTESIAN_POINT ( 'NONE',  ( 42.00000000000000000, 0.0000000000000000000, 0.0000000000000000000 ) ) ;
#170 = PLANE ( 'NONE',  #97 ) ;
#171 = PLANE ( 'NONE',  #348 ) ;
#172 = APPROVAL_STATUS ( 'not_yet_approved' ) ;
#173 = CALENDAR_DATE ( 2024, 22, 5 ) ;
#174 = ORIENTED_EDGE ( 'NONE', *, *, #201, .F. ) ;
#175 = CARTESIAN_POINT ( 'NONE',  ( 30.50000000000000400, 0.0000000000000000000, 0.0000000000000000000 ) ) ;
#176 = PERSON_AND_ORGANIZATION_ROLE ( 'classification_officer' ) ;
#177 = AXIS2_PLACEMENT_3D ( 'NONE', #305, #240, #237 ) ;
#178 = APPLICATION_PROTOCOL_DEFINITION ( 'international standard', 'config_control_design', 1994, #90 ) ;
#179 = EDGE_CURVE ( 'NONE', #182, #353, #375, .T. ) ;
#180 = VECTOR ( 'NONE', #51, 1000.000000000000000 ) ;
#181 = APPLICATION_PROTOCOL_DEFINITION ( 'international standard', 'config_control_design', 1994, #270 ) ;
#182 = VERTEX_POINT ( 'NONE', #236 ) ;
#183 = AXIS2_PLACEMENT_3D ( 'NONE', #330, #355, #165 ) ;
#184 = ORGANIZATION ( 'UNSPECIFIED', 'UNSPECIFIED', '' ) ;
#185 = FACE_OUTER_BOUND ( 'NONE', #376, .T. ) ;
#186 = EDGE_CURVE ( 'NONE', #148, #88, #160, .T. ) ;
#187 = CC_DESIGN_APPROVAL ( #285, ( #329 ) ) ;
#188 = EDGE_LOOP ( 'NONE', ( #252, #189, #31, #174 ) ) ;
#189 = ORIENTED_EDGE ( 'NONE', *, *, #151, .T. ) ;
#190 = AXIS2_PLACEMENT_3D ( 'NONE', #32, #86, #60 ) ;
#191 = AXIS2_PLACEMENT_3D ( 'NONE', #106, #195, #323 ) ;
#192 = APPROVAL_PERSON_ORGANIZATION ( #311, #10, #5 ) ;
#193 = CIRCLE ( 'NONE', #255, 3.000000000000000400 ) ;
#194 = DIRECTION ( 'NONE',  ( 1.000000000000000000, -0.0000000000000000000, -0.0000000000000000000 ) ) ;
#195 = DIRECTION ( 'NONE',  ( -1.000000000000000000, -0.0000000000000000000, -0.0000000000000000000 ) ) ;
#196 = CC_DESIGN_PERSON_AND_ORGANIZATION_ASSIGNMENT ( #131, #271, ( #116 ) ) ;
#197 = DIRECTION ( 'NONE',  ( -1.000000000000000000, -0.0000000000000000000, -0.0000000000000000000 ) ) ;
#198 = CARTESIAN_POINT ( 'NONE',  ( -30.50000000000000700, 0.0000000000000000000, 1.649999999999988400 ) ) ;
#199 = FACE_OUTER_BOUND ( 'NONE', #108, .T. ) ;
#200 = EDGE_LOOP ( 'NONE', ( #275, #320, #52, #354 ) ) ;
#201 = EDGE_CURVE ( 'NONE', #121, #154, #267, .T. ) ;
#202 = DIRECTION ( 'NONE',  ( 0.0000000000000000000, 0.0000000000000000000, 1.000000000000000000 ) ) ;
#203 = CARTESIAN_POINT ( 'NONE',  ( 42.00000000000000000, 0.0000000000000000000, -1.649999999999993900 ) ) ;
#204 = DIRECTION ( 'NONE',  ( -0.5150380749100592600, 0.0000000000000000000, 0.8571673007021092200 ) ) ;
#205 = DATE_AND_TIME ( #152, #318 ) ;
#206 = CIRCLE ( 'NONE', #140, 3.000000000000000400 ) ;
#207 = CARTESIAN_POINT ( 'NONE',  ( -42.00000000000000000, 2.020667218593119400E-016, -1.649999999999989300 ) ) ;
#208 = CARTESIAN_POINT ( 'NONE',  ( -42.00000000000000000, 0.0000000000000000000, 0.0000000000000000000 ) ) ;
#209 = EDGE_CURVE ( 'NONE', #245, #292, #40, .T. ) ;
#210 = DIRECTION ( 'NONE',  ( 0.0000000000000000000, 0.0000000000000000000, -1.000000000000000000 ) ) ;
#211 = ORIENTED_EDGE ( 'NONE', *, *, #102, .T. ) ;
#212 = PERSON_AND_ORGANIZATION_ROLE ( 'creator' ) ;
#213 = CC_DESIGN_DATE_AND_TIME_ASSIGNMENT ( #103, #118, ( #280 ) ) ;
#214 = AXIS2_PLACEMENT_3D ( 'NONE', #356, #374, #254 ) ;
#215 = ORIENTED_EDGE ( 'NONE', *, *, #98, .T. ) ;
#216 = CONICAL_SURFACE ( 'NONE', #357, 1.649999999999988400, 1.029744258676648500 ) ;
#217 = CIRCLE ( 'NONE', #372, 1.649999999999989900 ) ;
#218 = VERTEX_POINT ( 'NONE', #85 ) ;
#219 = EDGE_CURVE ( 'NONE', #353, #182, #206, .T. ) ;
#220 = COORDINATED_UNIVERSAL_TIME_OFFSET ( 1, 0, .AHEAD. ) ;
#221 = ORIENTED_EDGE ( 'NONE', *, *, #284, .T. ) ;
#222 = MANIFOLD_SOLID_BREP ( 'Trou taraudé M42', #150 ) ;
#223 = EDGE_CURVE ( 'NONE', #328, #132, #339, .T. ) ;
#224 = DATE_AND_TIME ( #173, #316 ) ;
#225 = DIRECTION ( 'NONE',  ( 0.0000000000000000000, 0.0000000000000000000, 1.000000000000000000 ) ) ;
#226 = FACE_OUTER_BOUND ( 'NONE', #89, .T. ) ;
#227 = ORIENTED_EDGE ( 'NONE', *, *, #289, .F. ) ;
#228 = DIRECTION ( 'NONE',  ( 0.0000000000000000000, 0.0000000000000000000, -1.000000000000000000 ) ) ;
#229 = DIRECTION ( 'NONE',  ( 1.000000000000000000, -0.0000000000000000000, -0.0000000000000000000 ) ) ;
#230 = DIRECTION ( 'NONE',  ( -1.000000000000000000, -0.0000000000000000000, -0.0000000000000000000 ) ) ;
#231 = PERSON_AND_ORGANIZATION ( #91, #184 ) ;
#232 = CARTESIAN_POINT ( 'NONE',  ( -42.00000000000000000, 0.0000000000000000000, 0.0000000000000000000 ) ) ;
#233 = EDGE_LOOP ( 'NONE', ( #227, #298 ) ) ;
#234 = DIRECTION ( 'NONE',  ( 0.0000000000000000000, 0.0000000000000000000, 1.000000000000000000 ) ) ;
#235 = EDGE_CURVE ( 'NONE', #292, #121, #56, .T. ) ;
#236 = CARTESIAN_POINT ( 'NONE',  ( -42.00000000000000000, 3.673940397442059900E-016, -3.000000000000000400 ) ) ;
#237 = DIRECTION ( 'NONE',  ( 1.000000000000000000, 0.0000000000000000000, 0.0000000000000000000 ) ) ;
#238 = COORDINATED_UNIVERSAL_TIME_OFFSET ( 1, 0, .AHEAD. ) ;
#239 = VECTOR ( 'NONE', #23, 1000.000000000000000 ) ;
#240 = DIRECTION ( 'NONE',  ( 0.0000000000000000000, 0.0000000000000000000, 1.000000000000000000 ) ) ;
#241 = ORIENTED_EDGE ( 'NONE', *, *, #247, .F. ) ;
#242 =( NAMED_UNIT ( * ) PLANE_ANGLE_UNIT ( ) SI_UNIT ( $, .RADIAN. ) );
#243 = PERSON_AND_ORGANIZATION_ROLE ( 'design_supplier' ) ;
#244 = CALENDAR_DATE ( 2024, 22, 5 ) ;
#245 = VERTEX_POINT ( 'NONE', #377 ) ;
#246 = ADVANCED_FACE ( 'NONE', ( #226 ), #364, .F. ) ;
#247 = EDGE_CURVE ( 'NONE', #2, #313, #319, .T. ) ;
#248 = LINE ( 'NONE', #351, #127 ) ;
#249 = ORIENTED_EDGE ( 'NONE', *, *, #342, .T. ) ;
#250 = VECTOR ( 'NONE', #204, 999.9999999999998900 ) ;
#251 = PRODUCT_DEFINITION_FORMATION_WITH_SPECIFIED_SOURCE ( 'ANY', '', #116, .NOT_KNOWN. ) ;
#252 = ORIENTED_EDGE ( 'NONE', *, *, #235, .F. ) ;
#253 = ORIENTED_EDGE ( 'NONE', *, *, #84, .F. ) ;
#254 = DIRECTION ( 'NONE',  ( 0.0000000000000000000, 0.0000000000000000000, 1.000000000000000000 ) ) ;
#255 = AXIS2_PLACEMENT_3D ( 'NONE', #274, #335, #119 ) ;
#256 = DIRECTION ( 'NONE',  ( 0.0000000000000000000, 0.0000000000000000000, 1.000000000000000000 ) ) ;
#257 = CALENDAR_DATE ( 2024, 22, 5 ) ;
#258 = LINE ( 'NONE', #294, #99 ) ;
#259 = ORIENTED_EDGE ( 'NONE', *, *, #223, .F. ) ;
#260 = CARTESIAN_POINT ( 'NONE',  ( -30.50000000000000700, 0.0000000000000000000, 0.0000000000000000000 ) ) ;
#261 = CARTESIAN_POINT ( 'NONE',  ( 42.00000000000000000, 3.673940397442059900E-016, -3.000000000000000400 ) ) ;
#262 = CC_DESIGN_DATE_AND_TIME_ASSIGNMENT ( #205, #92, ( #329 ) ) ;
#263 = CARTESIAN_POINT ( 'NONE',  ( -30.50000000000000700, 2.020667218593118500E-016, -1.649999999999988400 ) ) ;
#264 = DIRECTION ( 'NONE',  ( 0.0000000000000000000, 0.0000000000000000000, 1.000000000000000000 ) ) ;
#265 = DIRECTION ( 'NONE',  ( -1.000000000000000000, -0.0000000000000000000, -0.0000000000000000000 ) ) ;
#266 = DIRECTION ( 'NONE',  ( 0.5150380749100558200, 1.049727191138617500E-016, 0.8571673007021113300 ) ) ;
#267 = LINE ( 'NONE', #203, #239 ) ;
#268 =( LENGTH_UNIT ( ) NAMED_UNIT ( * ) SI_UNIT ( .MILLI., .METRE. ) );
#269 = EDGE_CURVE ( 'NONE', #77, #2, #327, .T. ) ;
#270 = APPLICATION_CONTEXT ( 'configuration controlled 3d designs of mechanical parts and assemblies' ) ;
#271 = PERSON_AND_ORGANIZATION_ROLE ( 'design_owner' ) ;
#272 = VECTOR ( 'NONE', #19, 999.9999999999998900 ) ;
#273 = ADVANCED_FACE ( 'NONE', ( #199 ), #30, .F. ) ;
#274 = CARTESIAN_POINT ( 'NONE',  ( 42.00000000000000000, 0.0000000000000000000, 0.0000000000000000000 ) ) ;
#275 = ORIENTED_EDGE ( 'NONE', *, *, #98, .F. ) ;
#276 = APPROVAL ( #332, 'UNSPECIFIED' ) ;
#277 = ADVANCED_FACE ( 'NONE', ( #36 ), #125, .F. ) ;
#278 = LINE ( 'NONE', #207, #107 ) ;
#279 = PRODUCT_DEFINITION_SHAPE ( 'NONE', 'NONE',  #280 ) ;
#280 = PRODUCT_DEFINITION ( 'UNKNOWN', '', #251, #35 ) ;
#281 = LOCAL_TIME ( 14, 31, 34.00000000000000000, #238 ) ;
#282 = LINE ( 'NONE', #75, #312 ) ;
#283 = ORIENTED_EDGE ( 'NONE', *, *, #179, .T. ) ;
#284 = EDGE_CURVE ( 'NONE', #77, #313, #120, .T. ) ;
#285 = APPROVAL ( #3, 'UNSPECIFIED' ) ;
#286 = APPROVAL_PERSON_ORGANIZATION ( #76, #276, #362 ) ;
#287 = FACE_OUTER_BOUND ( 'NONE', #373, .T. ) ;
#288 = DIRECTION ( 'NONE',  ( -1.000000000000000000, -0.0000000000000000000, -0.0000000000000000000 ) ) ;
#289 = EDGE_CURVE ( 'NONE', #88, #148, #290, .T. ) ;
#290 = CIRCLE ( 'NONE', #94, 1.649999999999989900 ) ;
#291 = DIRECTION ( 'NONE',  ( 0.0000000000000000000, 0.0000000000000000000, -1.000000000000000000 ) ) ;
#292 = VERTEX_POINT ( 'NONE', #322 ) ;
#293 = ADVANCED_FACE ( 'NONE', ( #166 ), #361, .F. ) ;
#294 = CARTESIAN_POINT ( 'NONE',  ( -42.00000000000000000, 0.0000000000000000000, 1.649999999999989300 ) ) ;
#295 = CC_DESIGN_APPROVAL ( #276, ( #251 ) ) ;
#296 = CARTESIAN_POINT ( 'NONE',  ( -30.50000000000000700, 0.0000000000000000000, 1.649999999999988400 ) ) ;
#297 = DIRECTION ( 'NONE',  ( -1.000000000000000000, -0.0000000000000000000, -0.0000000000000000000 ) ) ;
#298 = ORIENTED_EDGE ( 'NONE', *, *, #186, .F. ) ;
#299 = CARTESIAN_POINT ( 'NONE',  ( -30.50000000000000700, 0.0000000000000000000, 0.0000000000000000000 ) ) ;
#300 = CARTESIAN_POINT ( 'NONE',  ( 42.00000000000000000, 0.0000000000000000000, 0.0000000000000000000 ) ) ;
#301 = DIRECTION ( 'NONE',  ( 0.0000000000000000000, 0.0000000000000000000, -1.000000000000000000 ) ) ;
#302 = VECTOR ( 'NONE', #266, 1000.000000000000000 ) ;
#303 = ORIENTED_EDGE ( 'NONE', *, *, #219, .T. ) ;
#304 = AXIS2_PLACEMENT_3D ( 'NONE', #169, #24, #45 ) ;
#305 = CARTESIAN_POINT ( 'NONE',  ( 0.0000000000000000000, 0.0000000000000000000, 0.0000000000000000000 ) ) ;
#306 = EDGE_CURVE ( 'NONE', #2, #88, #258, .T. ) ;
#307 = LOCAL_TIME ( 14, 31, 34.00000000000000000, #101 ) ;
#308 = ORIENTED_EDGE ( 'NONE', *, *, #269, .T. ) ;
#309 = ADVANCED_FACE ( 'NONE', ( #153 ), #216, .F. ) ;
#310 = EDGE_CURVE ( 'NONE', #313, #148, #278, .T. ) ;
#311 = PERSON_AND_ORGANIZATION ( #91, #184 ) ;
#312 = VECTOR ( 'NONE', #197, 1000.000000000000000 ) ;
#313 = VERTEX_POINT ( 'NONE', #263 ) ;
#314 = AXIS2_PLACEMENT_3D ( 'NONE', #321, #229, #291 ) ;
#315 = CC_DESIGN_PERSON_AND_ORGANIZATION_ASSIGNMENT ( #65, #212, ( #251 ) ) ;
#316 = LOCAL_TIME ( 14, 31, 34.00000000000000000, #13 ) ;
#317 = ORIENTED_EDGE ( 'NONE', *, *, #102, .F. ) ;
#318 = LOCAL_TIME ( 14, 31, 34.00000000000000000, #220 ) ;
#319 = CIRCLE ( 'NONE', #38, 1.649999999999988400 ) ;
#320 = ORIENTED_EDGE ( 'NONE', *, *, #310, .T. ) ;
#321 = CARTESIAN_POINT ( 'NONE',  ( 42.00000000000000000, 0.0000000000000000000, 0.0000000000000000000 ) ) ;
#322 = CARTESIAN_POINT ( 'NONE',  ( 30.50000000000000400, 2.020667218593129800E-016, 1.649999999999997700 ) ) ;
#323 = DIRECTION ( 'NONE',  ( 0.0000000000000000000, 0.0000000000000000000, 1.000000000000000000 ) ) ;
#324 = CARTESIAN_POINT ( 'NONE',  ( -42.00000000000000000, 0.0000000000000000000, 0.0000000000000000000 ) ) ;
#325 = CARTESIAN_POINT ( 'NONE',  ( 30.50000000000000400, 0.0000000000000000000, 0.0000000000000000000 ) ) ;
#326 = EDGE_CURVE ( 'NONE', #132, #328, #193, .T. ) ;
#327 = LINE ( 'NONE', #198, #250 ) ;
#328 = VERTEX_POINT ( 'NONE', #74 ) ;
#329 = SECURITY_CLASSIFICATION ( '', '', #337 ) ;
#330 = CARTESIAN_POINT ( 'NONE',  ( 42.00000000000000000, 0.0000000000000000000, 0.0000000000000000000 ) ) ;
#331 = CARTESIAN_POINT ( 'NONE',  ( -30.50000000000000700, 2.020667218593118500E-016, -1.649999999999988400 ) ) ;
#332 = APPROVAL_STATUS ( 'not_yet_approved' ) ;
#333 = CARTESIAN_POINT ( 'NONE',  ( -42.00000000000000000, 0.0000000000000000000, 0.0000000000000000000 ) ) ;
#334 = FACE_BOUND ( 'NONE', #156, .T. ) ;
#335 = DIRECTION ( 'NONE',  ( 1.000000000000000000, 0.0000000000000000000, 0.0000000000000000000 ) ) ;
#336 = ORIENTED_EDGE ( 'NONE', *, *, #310, .F. ) ;
#337 = SECURITY_CLASSIFICATION_LEVEL ( 'unclassified' ) ;
#338 =( NAMED_UNIT ( * ) SI_UNIT ( $, .STERADIAN. ) SOLID_ANGLE_UNIT ( ) );
#339 = CIRCLE ( 'NONE', #183, 3.000000000000000400 ) ;
#340 = CC_DESIGN_PERSON_AND_ORGANIZATION_ASSIGNMENT ( #87, #243, ( #251 ) ) ;
#341 = ADVANCED_FACE ( 'NONE', ( #11, #33 ), #170, .F. ) ;
#342 = EDGE_CURVE ( 'NONE', #132, #182, #369, .T. ) ;
#343 = ADVANCED_FACE ( 'NONE', ( #360 ), #62, .F. ) ;
#344 = APPROVAL_DATE_TIME ( #130, #285 ) ;
#345 = ADVANCED_FACE ( 'NONE', ( #126 ), #42, .F. ) ;
#346 = FACE_OUTER_BOUND ( 'NONE', #347, .T. ) ;
#347 = EDGE_LOOP ( 'NONE', ( #368, #167 ) ) ;
#348 = AXIS2_PLACEMENT_3D ( 'NONE', #300, #383, #111 ) ;
#349 = ORIENTED_EDGE ( 'NONE', *, *, #209, .F. ) ;
#350 = AXIS2_PLACEMENT_3D ( 'NONE', #325, #161, #17 ) ;
#351 = CARTESIAN_POINT ( 'NONE',  ( 30.50000000000000400, 0.0000000000000000000, -1.649999999999997700 ) ) ;
#352 = DIRECTION ( 'NONE',  ( 1.000000000000000000, -0.0000000000000000000, -0.0000000000000000000 ) ) ;
#353 = VERTEX_POINT ( 'NONE', #57 ) ;
#354 = ORIENTED_EDGE ( 'NONE', *, *, #306, .F. ) ;
#355 = DIRECTION ( 'NONE',  ( 1.000000000000000000, 0.0000000000000000000, 0.0000000000000000000 ) ) ;
#356 = CARTESIAN_POINT ( 'NONE',  ( 42.00000000000000000, 0.0000000000000000000, 0.0000000000000000000 ) ) ;
#357 = AXIS2_PLACEMENT_3D ( 'NONE', #260, #112, #202 ) ;
#358 = UNCERTAINTY_MEASURE_WITH_UNIT (LENGTH_MEASURE( 1.000000000000000100E-005 ), #268, 'distance_accuracy_value', 'NONE');
#359 = CARTESIAN_POINT ( 'NONE',  ( 30.50000000000000400, 0.0000000000000000000, 0.0000000000000000000 ) ) ;
#360 = FACE_OUTER_BOUND ( 'NONE', #96, .T. ) ;
#361 = CONICAL_SURFACE ( 'NONE', #16, 1.649999999999988400, 1.029744258676648500 ) ;
#362 = APPROVAL_ROLE ( '' ) ;
#363 = APPROVAL_DATE_TIME ( #68, #10 ) ;
#364 = CONICAL_SURFACE ( 'NONE', #157, 1.649999999999997700, 1.029744258676652500 ) ;
#365 = ORIENTED_EDGE ( 'NONE', *, *, #269, .F. ) ;
#366 = DIRECTION ( 'NONE',  ( 0.0000000000000000000, 0.0000000000000000000, 1.000000000000000000 ) ) ;
#367 = EDGE_CURVE ( 'NONE', #121, #292, #95, .T. ) ;
#368 = ORIENTED_EDGE ( 'NONE', *, *, #223, .T. ) ;
#369 = LINE ( 'NONE', #115, #134 ) ;
#370 = ORIENTED_EDGE ( 'NONE', *, *, #342, .F. ) ;
#371 = ORIENTED_EDGE ( 'NONE', *, *, #289, .T. ) ;
#372 = AXIS2_PLACEMENT_3D ( 'NONE', #378, #194, #228 ) ;
#373 = EDGE_LOOP ( 'NONE', ( #27, #249, #283, #12 ) ) ;
#374 = DIRECTION ( 'NONE',  ( -1.000000000000000000, -0.0000000000000000000, -0.0000000000000000000 ) ) ;
#375 = CIRCLE ( 'NONE', #4, 3.000000000000000400 ) ;
#376 = EDGE_LOOP ( 'NONE', ( #370, #259, #66, #303 ) ) ;
#377 = CARTESIAN_POINT ( 'NONE',  ( 29.50857997860452600, -3.469446951953614200E-015, 0.0000000000000000000 ) ) ;
#378 = CARTESIAN_POINT ( 'NONE',  ( 42.00000000000000000, 0.0000000000000000000, 0.0000000000000000000 ) ) ;
#379 = PERSON_AND_ORGANIZATION ( #91, #184 ) ;
#380 = ORIENTED_EDGE ( 'NONE', *, *, #284, .F. ) ;
#381 = DIRECTION ( 'NONE',  ( 1.000000000000000000, -0.0000000000000000000, -0.0000000000000000000 ) ) ;
#382 = DIRECTION ( 'NONE',  ( 1.000000000000000000, 0.0000000000000000000, 0.0000000000000000000 ) ) ;
#383 = DIRECTION ( 'NONE',  ( 1.000000000000000000, 0.0000000000000000000, 0.0000000000000000000 ) ) ;
ENDSEC;
END-ISO-10303-21;
