ISO-10303-21;
HEADER;
FILE_DESCRIPTION(('STEP AP214'),'1');
FILE_NAME('axe rabatteur D.stp','2024-03-22T14:32:29',(' '),(' '),'Spatial InterOp 3D',' ',' ');
FILE_SCHEMA(('AUTOMOTIVE_DESIGN { 1 0 10303 214 1 1 1 1 }'));
ENDSEC;
DATA;
#1=MECHANICAL_DESIGN_GEOMETRIC_PRESENTATION_REPRESENTATION(' ',(#58,#59,#60,#61,#62,#63,#64,#65,#66,#67),#6);
#2=PRODUCT_DEFINITION_CONTEXT('',#68,'design');
#3=APPLICATION_PROTOCOL_DEFINITION('INTERNATIONAL STANDARD','automotive_design',1994,#68);
#4=PRODUCT_CATEGORY_RELATIONSHIP('NONE','NONE',#69,#70);
#5=SHAPE_DEFINITION_REPRESENTATION(#71,#72);
#6= (GEOMETRIC_REPRESENTATION_CONTEXT(3)GLOBAL_UNCERTAINTY_ASSIGNED_CONTEXT((#75))GLOBAL_UNIT_ASSIGNED_CONTEXT((#77,#78,#79))REPRESENTATION_CONTEXT('NONE','WORKSPACE'));
#7=PROPERTY_DEFINITION_REPRESENTATION(#81,#82);
#8=GENERAL_PROPERTY_ASSOCIATION('','',#83,#81);
#9=PROPERTY_DEFINITION_REPRESENTATION(#84,#85);
#10=GENERAL_PROPERTY_ASSOCIATION('','',#86,#84);
#11=PROPERTY_DEFINITION_REPRESENTATION(#87,#88);
#12=GENERAL_PROPERTY_ASSOCIATION('','',#89,#87);
#13=PROPERTY_DEFINITION_REPRESENTATION(#90,#91);
#14=GENERAL_PROPERTY_ASSOCIATION('','',#92,#90);
#15=PROPERTY_DEFINITION_REPRESENTATION(#93,#94);
#16=GENERAL_PROPERTY_ASSOCIATION('','',#95,#93);
#17=PROPERTY_DEFINITION_REPRESENTATION(#96,#97);
#18=GENERAL_PROPERTY_ASSOCIATION('','',#98,#96);
#19=PROPERTY_DEFINITION_REPRESENTATION(#99,#100);
#20=GENERAL_PROPERTY_ASSOCIATION('','',#101,#99);
#21=PROPERTY_DEFINITION_REPRESENTATION(#102,#103);
#22=GENERAL_PROPERTY_ASSOCIATION('','',#104,#102);
#23=PROPERTY_DEFINITION_REPRESENTATION(#105,#106);
#24=GENERAL_PROPERTY_ASSOCIATION('','',#107,#105);
#25=PROPERTY_DEFINITION_REPRESENTATION(#108,#109);
#26=GENERAL_PROPERTY_ASSOCIATION('','',#110,#108);
#27=PROPERTY_DEFINITION_REPRESENTATION(#111,#112);
#28=GENERAL_PROPERTY_ASSOCIATION('','',#113,#111);
#29=PROPERTY_DEFINITION_REPRESENTATION(#114,#115);
#30=GENERAL_PROPERTY_ASSOCIATION('','',#116,#114);
#31=PROPERTY_DEFINITION_REPRESENTATION(#117,#118);
#32=GENERAL_PROPERTY_ASSOCIATION('','',#119,#117);
#33=PROPERTY_DEFINITION_REPRESENTATION(#120,#121);
#34=GENERAL_PROPERTY_ASSOCIATION('','',#122,#120);
#35=PROPERTY_DEFINITION_REPRESENTATION(#123,#124);
#36=GENERAL_PROPERTY_ASSOCIATION('','',#125,#123);
#37=PROPERTY_DEFINITION_REPRESENTATION(#126,#127);
#38=GENERAL_PROPERTY_ASSOCIATION('','',#128,#126);
#39=PROPERTY_DEFINITION_REPRESENTATION(#129,#130);
#40=GENERAL_PROPERTY_ASSOCIATION('','',#131,#129);
#41=PROPERTY_DEFINITION_REPRESENTATION(#132,#133);
#42=GENERAL_PROPERTY_ASSOCIATION('','',#134,#132);
#43=PROPERTY_DEFINITION_REPRESENTATION(#135,#136);
#44=GENERAL_PROPERTY_ASSOCIATION('','',#137,#135);
#45=PROPERTY_DEFINITION_REPRESENTATION(#138,#139);
#46=GENERAL_PROPERTY_ASSOCIATION('','',#140,#138);
#47=PROPERTY_DEFINITION_REPRESENTATION(#141,#142);
#48=GENERAL_PROPERTY_ASSOCIATION('','',#143,#141);
#49=PROPERTY_DEFINITION_REPRESENTATION(#144,#145);
#50=GENERAL_PROPERTY_ASSOCIATION('','',#146,#144);
#51=PROPERTY_DEFINITION_REPRESENTATION(#147,#148);
#52=GENERAL_PROPERTY_ASSOCIATION('','',#149,#147);
#53=PROPERTY_DEFINITION_REPRESENTATION(#150,#151);
#54=GENERAL_PROPERTY_ASSOCIATION('','',#152,#150);
#58=STYLED_ITEM('',(#153),#154);
#59=STYLED_ITEM('',(#155),#156);
#60=STYLED_ITEM('',(#157),#158);
#61=STYLED_ITEM('',(#159),#160);
#62=STYLED_ITEM('',(#161),#162);
#63=STYLED_ITEM('',(#163),#164);
#64=STYLED_ITEM('',(#165),#166);
#65=STYLED_ITEM('',(#167),#168);
#66=STYLED_ITEM('',(#169),#170);
#67=STYLED_ITEM('',(#171),#172);
#68=APPLICATION_CONTEXT(' ');
#69=PRODUCT_CATEGORY('part','NONE');
#70=PRODUCT_RELATED_PRODUCT_CATEGORY('detail',' ',(#173));
#71=PRODUCT_DEFINITION_SHAPE('NONE','NONE',#174);
#72=ADVANCED_BREP_SHAPE_REPRESENTATION('axe rabatteur D',(#172,#175),#6);
#75=UNCERTAINTY_MEASURE_WITH_UNIT(LENGTH_MEASURE(0.001),#77,'','');
#77= (CONVERSION_BASED_UNIT('MILLIMETRE',#178)LENGTH_UNIT()NAMED_UNIT(#181));
#78= (NAMED_UNIT(#183)PLANE_ANGLE_UNIT()SI_UNIT($,.RADIAN.));
#79= (NAMED_UNIT(#183)SOLID_ANGLE_UNIT()SI_UNIT($,.STERADIAN.));
#81=PROPERTY_DEFINITION('PdmObjectId','',#174);
#82=REPRESENTATION('',(#189),#6);
#83=GENERAL_PROPERTY('','PdmObjectId','');
#84=PROPERTY_DEFINITION('Type de Production','',#174);
#85=REPRESENTATION('',(#190),#6);
#86=GENERAL_PROPERTY('','Type de Production','');
#87=PROPERTY_DEFINITION('Nom','',#174);
#88=REPRESENTATION('',(#191),#6);
#89=GENERAL_PROPERTY('','Nom','');
#90=PROPERTY_DEFINITION('Type de brut','',#174);
#91=REPRESENTATION('',(#192),#6);
#92=GENERAL_PROPERTY('','Type de brut','');
#93=PROPERTY_DEFINITION('Dimensions du brut','',#174);
#94=REPRESENTATION('',(#193),#6);
#95=GENERAL_PROPERTY('','Dimensions du brut','');
#96=PROPERTY_DEFINITION('Nom du brut','',#174);
#97=REPRESENTATION('',(#194),#6);
#98=GENERAL_PROPERTY('','Nom du brut','');
#99=PROPERTY_DEFINITION('D\X2\00E9\X0\signation du brut','',#174);
#100=REPRESENTATION('',(#195),#6);
#101=GENERAL_PROPERTY('','D\X2\00E9\X0\signation du brut','');
#102=PROPERTY_DEFINITION('R\X2\00E9\X0\f\X2\00E9\X0\rence du brut','',#174);
#103=REPRESENTATION('',(#196),#6);
#104=GENERAL_PROPERTY('','R\X2\00E9\X0\f\X2\00E9\X0\rence du brut','');
#105=PROPERTY_DEFINITION('R\X2\00E9\X0\vision majeure du brut','',#174);
#106=REPRESENTATION('',(#197),#6);
#107=GENERAL_PROPERTY('','R\X2\00E9\X0\vision majeure du brut','');
#108=PROPERTY_DEFINITION('D\X2\00E9\X0\signation de la r\X2\00E8\X0\gle de mise \X2\00E0\X0\ plat','',#174);
#109=REPRESENTATION('',(#198),#6);
#110=GENERAL_PROPERTY('','D\X2\00E9\X0\signation de la r\X2\00E8\X0\gle de mise \X2\00E0\X0\ plat','');
#111=PROPERTY_DEFINITION('R\X2\00E9\X0\f\X2\00E9\X0\rence de la r\X2\00E8\X0\gle de mise \X2\00E0\X0\ plat','',#174);
#112=REPRESENTATION('',(#199),#6);
#113=GENERAL_PROPERTY('','R\X2\00E9\X0\f\X2\00E9\X0\rence de la r\X2\00E8\X0\gle de mise \X2\00E0\X0\ plat','');
#114=PROPERTY_DEFINITION('Outil de pliage','',#174);
#115=REPRESENTATION('',(#200),#6);
#116=GENERAL_PROPERTY('','Outil de pliage','');
#117=PROPERTY_DEFINITION('D\X2\00E9\X0\signation du mat\X2\00E9\X0\riau','',#174);
#118=REPRESENTATION('',(#201),#6);
#119=GENERAL_PROPERTY('','D\X2\00E9\X0\signation du mat\X2\00E9\X0\riau','');
#120=PROPERTY_DEFINITION('Nom du mat\X2\00E9\X0\riau','',#174);
#121=REPRESENTATION('',(#202),#6);
#122=GENERAL_PROPERTY('','Nom du mat\X2\00E9\X0\riau','');
#123=PROPERTY_DEFINITION('BrutFinal','',#174);
#124=REPRESENTATION('',(#203),#6);
#125=GENERAL_PROPERTY('','BrutFinal','');
#126=PROPERTY_DEFINITION('BrutCylindrique','',#174);
#127=REPRESENTATION('',(#204),#6);
#128=GENERAL_PROPERTY('','BrutCylindrique','');
#129=PROPERTY_DEFINITION('Diam\X2\00E8\X0\treCylindreFormat\X2\00E9\X0\','',#174);
#130=REPRESENTATION('',(#205),#6);
#131=GENERAL_PROPERTY('','Diam\X2\00E8\X0\treCylindreFormat\X2\00E9\X0\','');
#132=PROPERTY_DEFINITION('LongueurCylindreFormat\X2\00E9\X0\','',#174);
#133=REPRESENTATION('',(#206),#6);
#134=GENERAL_PROPERTY('','LongueurCylindreFormat\X2\00E9\X0\','');
#135=PROPERTY_DEFINITION('BrutRectangulaire','',#174);
#136=REPRESENTATION('',(#207),#6);
#137=GENERAL_PROPERTY('','BrutRectangulaire','');
#138=PROPERTY_DEFINITION('TailleXBoiteFormat\X2\00E9\X0\','',#174);
#139=REPRESENTATION('',(#208),#6);
#140=GENERAL_PROPERTY('','TailleXBoiteFormat\X2\00E9\X0\','');
#141=PROPERTY_DEFINITION('TailleYBoiteFormat\X2\00E9\X0\','',#174);
#142=REPRESENTATION('',(#209),#6);
#143=GENERAL_PROPERTY('','TailleYBoiteFormat\X2\00E9\X0\','');
#144=PROPERTY_DEFINITION('TailleZBoiteFormat\X2\00E9\X0\','',#174);
#145=REPRESENTATION('',(#210),#6);
#146=GENERAL_PROPERTY('','TailleZBoiteFormat\X2\00E9\X0\','');
#147=PROPERTY_DEFINITION('CreationDate','',#174);
#148=REPRESENTATION('',(#211),#6);
#149=GENERAL_PROPERTY('','CreationDate','');
#150=PROPERTY_DEFINITION('Minor Revision','',#174);
#151=REPRESENTATION('',(#212),#6);
#152=GENERAL_PROPERTY('','Minor Revision','');
#153=PRESENTATION_STYLE_ASSIGNMENT((#213));
#154=ADVANCED_FACE('',(#214,#215),#216,.T.);
#155=PRESENTATION_STYLE_ASSIGNMENT((#217));
#156=ADVANCED_FACE('',(#218,#219),#220,.T.);
#157=PRESENTATION_STYLE_ASSIGNMENT((#221));
#158=ADVANCED_FACE('',(#222,#223),#224,.T.);
#159=PRESENTATION_STYLE_ASSIGNMENT((#225));
#160=ADVANCED_FACE('',(#226,#227),#228,.T.);
#161=PRESENTATION_STYLE_ASSIGNMENT((#229));
#162=ADVANCED_FACE('',(#230,#231),#232,.T.);
#163=PRESENTATION_STYLE_ASSIGNMENT((#233));
#164=ADVANCED_FACE('',(#234),#235,.T.);
#165=PRESENTATION_STYLE_ASSIGNMENT((#236));
#166=ADVANCED_FACE('',(#237,#238),#239,.T.);
#167=PRESENTATION_STYLE_ASSIGNMENT((#240));
#168=ADVANCED_FACE('',(#241),#242,.F.);
#169=PRESENTATION_STYLE_ASSIGNMENT((#243));
#170=ADVANCED_FACE('',(#244,#245),#246,.T.);
#171=PRESENTATION_STYLE_ASSIGNMENT((#247));
#172=MANIFOLD_SOLID_BREP('axe rabatteur D',#248);
#173=PRODUCT('axe rabatteur D','FAA04.12','axe rabatteur D',(#249));
#174=PRODUCT_DEFINITION('','NONE',#250,#2);
#175=AXIS2_PLACEMENT_3D('',#251,#252,#253);
#178=LENGTH_MEASURE_WITH_UNIT(LENGTH_MEASURE(1.0),#254);
#181=DIMENSIONAL_EXPONENTS(1.0,0.0,0.0,0.0,0.0,0.0,0.0);
#183=DIMENSIONAL_EXPONENTS(0.0,0.0,0.0,0.0,0.0,0.0,0.0);
#189=DESCRIPTIVE_REPRESENTATION_ITEM('','19_efddc087-0cc4-474b-afd5-dbe04f3866c8&2_1453_14_8');
#190=DESCRIPTIVE_REPRESENTATION_ITEM('','Usinage');
#191=DESCRIPTIVE_REPRESENTATION_ITEM('','axe rabatteur D');
#192=DESCRIPTIVE_REPRESENTATION_ITEM('','Non classifi\X2\00E9\X0\');
#193=DESCRIPTIVE_REPRESENTATION_ITEM('','');
#194=DESCRIPTIVE_REPRESENTATION_ITEM('','-');
#195=DESCRIPTIVE_REPRESENTATION_ITEM('','-');
#196=DESCRIPTIVE_REPRESENTATION_ITEM('','');
#197=DESCRIPTIVE_REPRESENTATION_ITEM('','');
#198=DESCRIPTIVE_REPRESENTATION_ITEM('','Taleau pliage');
#199=DESCRIPTIVE_REPRESENTATION_ITEM('','');
#200=DESCRIPTIVE_REPRESENTATION_ITEM('','<non sp\X2\00E9\X0\cifi\X2\00E9\X0\>');
#201=DESCRIPTIVE_REPRESENTATION_ITEM('','Acier E335 EN 10278');
#202=DESCRIPTIVE_REPRESENTATION_ITEM('','Acier E335 EN 10278');
#203=DESCRIPTIVE_REPRESENTATION_ITEM('','-');
#204=DESCRIPTIVE_REPRESENTATION_ITEM('','\X2\00D8\X0\ 45,00 \X2\00D7\X0\ 605,00');
#205=DESCRIPTIVE_REPRESENTATION_ITEM('','45,00');
#206=DESCRIPTIVE_REPRESENTATION_ITEM('','605,00');
#207=DESCRIPTIVE_REPRESENTATION_ITEM('','605,00 \X2\00D7\X0\ 45,00 \X2\00D7\X0\ 45,00');
#208=DESCRIPTIVE_REPRESENTATION_ITEM('','605,00');
#209=DESCRIPTIVE_REPRESENTATION_ITEM('','45,00');
#210=DESCRIPTIVE_REPRESENTATION_ITEM('','45,00');
#211=DESCRIPTIVE_REPRESENTATION_ITEM('','14/11/2023 15:50:18');
#212=DESCRIPTIVE_REPRESENTATION_ITEM('','2');
#213=SURFACE_STYLE_USAGE(.BOTH.,#255);
#214=FACE_BOUND('',#256,.T.);
#215=FACE_OUTER_BOUND('',#257,.T.);
#216=PLANE('',#258);
#217=SURFACE_STYLE_USAGE(.BOTH.,#259);
#218=FACE_OUTER_BOUND('',#260,.T.);
#219=FACE_OUTER_BOUND('',#261,.T.);
#220=CYLINDRICAL_SURFACE('',#262,20.0);
#221=SURFACE_STYLE_USAGE(.BOTH.,#263);
#222=FACE_OUTER_BOUND('',#264,.T.);
#223=FACE_OUTER_BOUND('',#265,.T.);
#224=CYLINDRICAL_SURFACE('',#266,17.5);
#225=SURFACE_STYLE_USAGE(.BOTH.,#267);
#226=FACE_OUTER_BOUND('',#268,.T.);
#227=FACE_BOUND('',#269,.T.);
#228=CONICAL_SURFACE('',#270,16.3452994616207,0.523598775598299);
#229=SURFACE_STYLE_USAGE(.BOTH.,#271);
#230=FACE_OUTER_BOUND('',#272,.T.);
#231=FACE_BOUND('',#273,.T.);
#232=CONICAL_SURFACE('',#274,16.3452994616207,0.523598775598299);
#233=SURFACE_STYLE_USAGE(.BOTH.,#275);
#234=FACE_OUTER_BOUND('',#276,.T.);
#235=PLANE('',#277);
#236=SURFACE_STYLE_USAGE(.BOTH.,#278);
#237=FACE_OUTER_BOUND('',#279,.T.);
#238=FACE_OUTER_BOUND('',#280,.T.);
#239=CYLINDRICAL_SURFACE('',#281,17.5);
#240=SURFACE_STYLE_USAGE(.BOTH.,#282);
#241=FACE_OUTER_BOUND('',#283,.T.);
#242=PLANE('',#284);
#243=SURFACE_STYLE_USAGE(.BOTH.,#285);
#244=FACE_BOUND('',#286,.T.);
#245=FACE_OUTER_BOUND('',#287,.T.);
#246=PLANE('',#288);
#247=SURFACE_STYLE_USAGE(.BOTH.,#289);
#248=CLOSED_SHELL('',(#154,#156,#158,#160,#162,#164,#166,#168,#170));
#249=PRODUCT_CONTEXT('',#68,'mechanical');
#250=PRODUCT_DEFINITION_FORMATION_WITH_SPECIFIED_SOURCE('A','NONE',#173,.NOT_KNOWN.);
#251=CARTESIAN_POINT('',(0.0,0.0,0.0));
#252=DIRECTION('',(0.0,0.0,1.0));
#253=DIRECTION('',(1.0,0.0,0.0));
#254= (NAMED_UNIT(#181)LENGTH_UNIT()SI_UNIT(.MILLI.,.METRE.));
#255=SURFACE_SIDE_STYLE('',(#291));
#256=EDGE_LOOP('',(#292));
#257=EDGE_LOOP('',(#293));
#258=AXIS2_PLACEMENT_3D('',#294,#295,#296);
#259=SURFACE_SIDE_STYLE('',(#297));
#260=EDGE_LOOP('',(#298));
#261=EDGE_LOOP('',(#299));
#262=AXIS2_PLACEMENT_3D('',#300,#301,#302);
#263=SURFACE_SIDE_STYLE('',(#303));
#264=EDGE_LOOP('',(#304));
#265=EDGE_LOOP('',(#305));
#266=AXIS2_PLACEMENT_3D('',#306,#307,#308);
#267=SURFACE_SIDE_STYLE('',(#309));
#268=EDGE_LOOP('',(#310));
#269=EDGE_LOOP('',(#311));
#270=AXIS2_PLACEMENT_3D('',#312,#313,#314);
#271=SURFACE_SIDE_STYLE('',(#315));
#272=EDGE_LOOP('',(#316));
#273=EDGE_LOOP('',(#317));
#274=AXIS2_PLACEMENT_3D('',#318,#319,#320);
#275=SURFACE_SIDE_STYLE('',(#321));
#276=EDGE_LOOP('',(#322));
#277=AXIS2_PLACEMENT_3D('',#323,#324,#325);
#278=SURFACE_SIDE_STYLE('',(#326));
#279=EDGE_LOOP('',(#327));
#280=EDGE_LOOP('',(#328));
#281=AXIS2_PLACEMENT_3D('',#329,#330,#331);
#282=SURFACE_SIDE_STYLE('',(#332));
#283=EDGE_LOOP('',(#333));
#284=AXIS2_PLACEMENT_3D('',#334,#335,#336);
#285=SURFACE_SIDE_STYLE('',(#337));
#286=EDGE_LOOP('',(#338));
#287=EDGE_LOOP('',(#339));
#288=AXIS2_PLACEMENT_3D('',#340,#341,#342);
#289=SURFACE_SIDE_STYLE('',(#343));
#291=SURFACE_STYLE_FILL_AREA(#344);
#292=ORIENTED_EDGE('',*,*,#345,.F.);
#293=ORIENTED_EDGE('',*,*,#346,.T.);
#294=CARTESIAN_POINT('',(0.0,0.0,255.0));
#295=DIRECTION('',(0.0,0.0,1.0));
#296=DIRECTION('',(-1.0,0.0,0.0));
#297=SURFACE_STYLE_FILL_AREA(#347);
#298=ORIENTED_EDGE('',*,*,#348,.F.);
#299=ORIENTED_EDGE('',*,*,#346,.F.);
#300=CARTESIAN_POINT('',(0.0,0.0,-300.0));
#301=DIRECTION('',(0.0,0.0,1.0));
#302=DIRECTION('',(1.0,0.0,0.0));
#303=SURFACE_STYLE_FILL_AREA(#349);
#304=ORIENTED_EDGE('',*,*,#350,.T.);
#305=ORIENTED_EDGE('',*,*,#351,.T.);
#306=CARTESIAN_POINT('',(0.0,0.0,-300.0));
#307=DIRECTION('',(0.0,0.0,1.0));
#308=DIRECTION('',(-1.0,0.0,0.0));
#309=SURFACE_STYLE_FILL_AREA(#352);
#310=ORIENTED_EDGE('',*,*,#353,.F.);
#311=ORIENTED_EDGE('',*,*,#354,.F.);
#312=CARTESIAN_POINT('',(0.0,0.0,300.0));
#313=DIRECTION('',(-0.0,0.0,-1.0));
#314=DIRECTION('',(-1.0,0.0,0.0));
#315=SURFACE_STYLE_FILL_AREA(#355);
#316=ORIENTED_EDGE('',*,*,#350,.F.);
#317=ORIENTED_EDGE('',*,*,#356,.F.);
#318=CARTESIAN_POINT('',(0.0,0.0,-300.0));
#319=DIRECTION('',(-0.0,-0.0,1.0));
#320=DIRECTION('',(1.0,0.0,0.0));
#321=SURFACE_STYLE_FILL_AREA(#357);
#322=ORIENTED_EDGE('',*,*,#354,.T.);
#323=CARTESIAN_POINT('',(0.0,0.0,300.0));
#324=DIRECTION('',(0.0,0.0,1.0));
#325=DIRECTION('',(1.0,0.0,0.0));
#326=SURFACE_STYLE_FILL_AREA(#358);
#327=ORIENTED_EDGE('',*,*,#353,.T.);
#328=ORIENTED_EDGE('',*,*,#345,.T.);
#329=CARTESIAN_POINT('',(0.0,0.0,300.0));
#330=DIRECTION('',(0.0,0.0,-1.0));
#331=DIRECTION('',(-1.0,0.0,0.0));
#332=SURFACE_STYLE_FILL_AREA(#359);
#333=ORIENTED_EDGE('',*,*,#356,.T.);
#334=CARTESIAN_POINT('',(0.0,0.0,-300.0));
#335=DIRECTION('',(0.0,0.0,1.0));
#336=DIRECTION('',(1.0,0.0,0.0));
#337=SURFACE_STYLE_FILL_AREA(#360);
#338=ORIENTED_EDGE('',*,*,#351,.F.);
#339=ORIENTED_EDGE('',*,*,#348,.T.);
#340=CARTESIAN_POINT('',(0.0,0.0,-255.0));
#341=DIRECTION('',(0.0,0.0,-1.0));
#342=DIRECTION('',(-1.0,0.0,0.0));
#343=SURFACE_STYLE_FILL_AREA(#361);
#344=FILL_AREA_STYLE('',(#362));
#345=EDGE_CURVE('',#363,#363,#364,.T.);
#346=EDGE_CURVE('',#365,#365,#366,.T.);
#347=FILL_AREA_STYLE('',(#367));
#348=EDGE_CURVE('',#368,#368,#369,.T.);
#349=FILL_AREA_STYLE('',(#370));
#350=EDGE_CURVE('',#371,#371,#372,.T.);
#351=EDGE_CURVE('',#373,#373,#374,.T.);
#352=FILL_AREA_STYLE('',(#375));
#353=EDGE_CURVE('',#376,#376,#377,.F.);
#354=EDGE_CURVE('',#378,#378,#379,.T.);
#355=FILL_AREA_STYLE('',(#380));
#356=EDGE_CURVE('',#381,#381,#382,.F.);
#357=FILL_AREA_STYLE('',(#383));
#358=FILL_AREA_STYLE('',(#384));
#359=FILL_AREA_STYLE('',(#385));
#360=FILL_AREA_STYLE('',(#386));
#361=FILL_AREA_STYLE('',(#387));
#362=FILL_AREA_STYLE_COLOUR('',#388);
#363=VERTEX_POINT('',#389);
#364=CIRCLE('',#390,17.5);
#365=VERTEX_POINT('',#391);
#366=CIRCLE('',#392,20.0);
#367=FILL_AREA_STYLE_COLOUR('',#393);
#368=VERTEX_POINT('',#394);
#369=CIRCLE('',#395,20.0);
#370=FILL_AREA_STYLE_COLOUR('',#396);
#371=VERTEX_POINT('',#397);
#372=CIRCLE('',#398,17.5);
#373=VERTEX_POINT('',#399);
#374=CIRCLE('',#400,17.5);
#375=FILL_AREA_STYLE_COLOUR('',#401);
#376=VERTEX_POINT('',#402);
#377=CIRCLE('',#403,17.5);
#378=VERTEX_POINT('',#404);
#379=CIRCLE('',#405,16.3452994616207);
#380=FILL_AREA_STYLE_COLOUR('',#406);
#381=VERTEX_POINT('',#407);
#382=CIRCLE('',#408,16.3452994616207);
#383=FILL_AREA_STYLE_COLOUR('',#409);
#384=FILL_AREA_STYLE_COLOUR('',#410);
#385=FILL_AREA_STYLE_COLOUR('',#411);
#386=FILL_AREA_STYLE_COLOUR('',#412);
#387=FILL_AREA_STYLE_COLOUR('',#413);
#388=COLOUR_RGB('',0.752941191196442,0.752941191196442,0.752941191196442);
#389=CARTESIAN_POINT('',(-17.5,0.0,255.0));
#390=AXIS2_PLACEMENT_3D('',#414,#415,#416);
#391=CARTESIAN_POINT('',(-20.0,0.0,255.0));
#392=AXIS2_PLACEMENT_3D('',#417,#418,#419);
#393=COLOUR_RGB('',0.752941191196442,0.752941191196442,0.752941191196442);
#394=CARTESIAN_POINT('',(-20.0,0.0,-255.0));
#395=AXIS2_PLACEMENT_3D('',#420,#421,#422);
#396=COLOUR_RGB('',0.752941191196442,0.752941191196442,0.752941191196442);
#397=CARTESIAN_POINT('',(17.5,0.0,-298.0));
#398=AXIS2_PLACEMENT_3D('',#423,#424,#425);
#399=CARTESIAN_POINT('',(-17.5,0.0,-255.0));
#400=AXIS2_PLACEMENT_3D('',#426,#427,#428);
#401=COLOUR_RGB('',0.752941191196442,0.752941191196442,0.752941191196442);
#402=CARTESIAN_POINT('',(17.5,-4.28626379701574E-15,298.0));
#403=AXIS2_PLACEMENT_3D('',#429,#430,#431);
#404=CARTESIAN_POINT('',(16.3452994616207,0.0,300.0));
#405=AXIS2_PLACEMENT_3D('',#432,#433,#434);
#406=COLOUR_RGB('',0.752941191196442,0.752941191196442,0.752941191196442);
#407=CARTESIAN_POINT('',(16.3452994616207,-4.00344373335576E-15,-300.0));
#408=AXIS2_PLACEMENT_3D('',#435,#436,#437);
#409=COLOUR_RGB('',0.752941191196442,0.752941191196442,0.752941191196442);
#410=COLOUR_RGB('',0.752941191196442,0.752941191196442,0.752941191196442);
#411=COLOUR_RGB('',0.752941191196442,0.752941191196442,0.752941191196442);
#412=COLOUR_RGB('',0.752941191196442,0.752941191196442,0.752941191196442);
#413=COLOUR_RGB('',0.752941191196442,0.752941191196442,0.752941191196442);
#414=CARTESIAN_POINT('',(0.0,0.0,255.0));
#415=DIRECTION('',(0.0,0.0,1.0));
#416=DIRECTION('',(-1.0,0.0,0.0));
#417=CARTESIAN_POINT('',(0.0,0.0,255.0));
#418=DIRECTION('',(0.0,0.0,1.0));
#419=DIRECTION('',(-1.0,0.0,0.0));
#420=CARTESIAN_POINT('',(0.0,0.0,-255.0));
#421=DIRECTION('',(0.0,0.0,-1.0));
#422=DIRECTION('',(-1.0,0.0,0.0));
#423=CARTESIAN_POINT('',(0.0,0.0,-298.0));
#424=DIRECTION('',(0.0,0.0,1.0));
#425=DIRECTION('',(1.0,0.0,0.0));
#426=CARTESIAN_POINT('',(0.0,0.0,-255.0));
#427=DIRECTION('',(0.0,0.0,-1.0));
#428=DIRECTION('',(-1.0,0.0,0.0));
#429=CARTESIAN_POINT('',(0.0,0.0,298.0));
#430=DIRECTION('',(0.0,0.0,1.0));
#431=DIRECTION('',(1.0,0.0,0.0));
#432=CARTESIAN_POINT('',(0.0,0.0,300.0));
#433=DIRECTION('',(0.0,0.0,1.0));
#434=DIRECTION('',(1.0,0.0,0.0));
#435=CARTESIAN_POINT('',(0.0,0.0,-300.0));
#436=DIRECTION('',(0.0,0.0,1.0));
#437=DIRECTION('',(1.0,0.0,0.0));
ENDSEC;
END-ISO-10303-21;
