ISO-10303-21;
HEADER;
FILE_DESCRIPTION( ( 'STEP AP203' ), '1' );
FILE_NAME( ' ', '  ', ( '  ' ), ( '  ' ), 'PSStep 10.1', '  ', '  ' );
FILE_SCHEMA( ( 'CONFIG_CONTROL_DESIGN' ) );
ENDSEC;
DATA;
#1 = DESIGN_CONTEXT( '', #27, 'design' );
#2 = APPLICATION_PROTOCOL_DEFINITION( 'INTERNATIONAL STANDARD', 'config_control_design', 1994, #27 );
#3 = PRODUCT_CATEGORY_RELATIONSHIP( 'NONE', 'NONE', #28, #29 );
#4 = DATE_AND_TIME( #30, #31 );
#5 = DATE_TIME_ROLE( 'creation_date' );
#6 = DATE_TIME_ROLE( 'classification_date' );
#7 = PERSON_AND_ORGANIZATION_ROLE( 'creator' );
#8 = PERSON_AND_ORGANIZATION_ROLE( 'design_supplier' );
#9 = PERSON_AND_ORGANIZATION_ROLE( 'classification_officer' );
#10 = PERSON_AND_ORGANIZATION_ROLE( 'design_owner' );
#11 = APPROVAL_PERSON_ORGANIZATION( #32, #33, #34 );
#12 = APPROVAL_DATE_TIME( #4, #33 );
#13 = CC_DESIGN_APPROVAL( #33, ( #35, #36, #37 ) );
#14 = CC_DESIGN_DATE_AND_TIME_ASSIGNMENT( #4, #5, ( #37 ) );
#15 = CC_DESIGN_DATE_AND_TIME_ASSIGNMENT( #4, #6, ( #35 ) );
#16 = CC_DESIGN_PERSON_AND_ORGANIZATION_ASSIGNMENT( #32, #10, ( #38 ) );
#17 = CC_DESIGN_PERSON_AND_ORGANIZATION_ASSIGNMENT( #32, #7, ( #37 ) );
#18 = CC_DESIGN_PERSON_AND_ORGANIZATION_ASSIGNMENT( #32, #7, ( #36 ) );
#19 = CC_DESIGN_PERSON_AND_ORGANIZATION_ASSIGNMENT( #32, #8, ( #36 ) );
#20 = CC_DESIGN_SECURITY_CLASSIFICATION( #35, ( #36 ) );
#21 = CC_DESIGN_PERSON_AND_ORGANIZATION_ASSIGNMENT( #32, #9, ( #35 ) );
#22 = SHAPE_DEFINITION_REPRESENTATION( #39, #40 );
#23 =  ( GEOMETRIC_REPRESENTATION_CONTEXT( 3 )GLOBAL_UNCERTAINTY_ASSIGNED_CONTEXT( ( #43 ) )GLOBAL_UNIT_ASSIGNED_CONTEXT( ( #45, #46, #47 ) )REPRESENTATION_CONTEXT( 'NONE', 'WORKSPACE' ) );
#27 = APPLICATION_CONTEXT( 'CONFIGURATION CONTROLLED 3D DESIGNS OF MECHANICAL PARTS AND ASSEMBLIES' );
#28 = PRODUCT_CATEGORY( 'part', 'NONE' );
#29 = PRODUCT_RELATED_PRODUCT_CATEGORY( 'detail', ' ', ( #38 ) );
#30 = CALENDAR_DATE( 2024, 29, 4 );
#31 = LOCAL_TIME( 7, 29, 19.0000000000000, #49 );
#32 = PERSON_AND_ORGANIZATION( #50, #51 );
#33 = APPROVAL( #52, 'SOLID MODEL' );
#34 = APPROVAL_ROLE( 'APPROVED' );
#35 = SECURITY_CLASSIFICATION( '', '', #53 );
#36 = PRODUCT_DEFINITION_FORMATION_WITH_SPECIFIED_SOURCE( ' ', 'NONE', #38, .NOT_KNOWN. );
#37 = PRODUCT_DEFINITION( 'NONE', 'NONE', #36, #1 );
#38 = PRODUCT( '1', '1', 'PART-1-DESC', ( #54 ) );
#39 = PRODUCT_DEFINITION_SHAPE( 'NONE', 'NONE', #37 );
#40 = ADVANCED_BREP_SHAPE_REPRESENTATION( '1', ( #55, #56 ), #23 );
#43 = UNCERTAINTY_MEASURE_WITH_UNIT( LENGTH_MEASURE( 0.00100000000000000 ), #45, '', '' );
#45 =  ( CONVERSION_BASED_UNIT( 'MILLIMETRE', #59 )LENGTH_UNIT(  )NAMED_UNIT( #62 ) );
#46 =  ( NAMED_UNIT( #64 )PLANE_ANGLE_UNIT(  )SI_UNIT( $, .RADIAN. ) );
#47 =  ( NAMED_UNIT( #64 )SI_UNIT( $, .STERADIAN. )SOLID_ANGLE_UNIT(  ) );
#49 = COORDINATED_UNIVERSAL_TIME_OFFSET( 1, 0, .AHEAD. );
#50 = PERSON( '', 'UNSPECIFIED', $, $, $, $ );
#51 = ORGANIZATION( 'UNSPECIFIED', 'UNSPECIFIED', 'UNSPECIFIED' );
#52 = APPROVAL_STATUS( 'approved' );
#53 = SECURITY_CLASSIFICATION_LEVEL( 'unclassified' );
#54 = MECHANICAL_CONTEXT( '', #27, 'mechanical' );
#55 = MANIFOLD_SOLID_BREP( '1', #70 );
#56 = AXIS2_PLACEMENT_3D( '', #71, #72, #73 );
#59 = LENGTH_MEASURE_WITH_UNIT( LENGTH_MEASURE( 1.00000000000000 ), #74 );
#62 = DIMENSIONAL_EXPONENTS( 1.00000000000000, 0.000000000000000, 0.000000000000000, 0.000000000000000, 0.000000000000000, 0.000000000000000, 0.000000000000000 );
#64 = DIMENSIONAL_EXPONENTS( 0.000000000000000, 0.000000000000000, 0.000000000000000, 0.000000000000000, 0.000000000000000, 0.000000000000000, 0.000000000000000 );
#70 = CLOSED_SHELL( '', ( #75, #76, #77, #78, #79, #80, #81, #82, #83, #84, #85, #86, #87, #88, #89, #90 ) );
#71 = CARTESIAN_POINT( '', ( 0.000000000000000, 0.000000000000000, 0.000000000000000 ) );
#72 = DIRECTION( '', ( 0.000000000000000, 0.000000000000000, 1.00000000000000 ) );
#73 = DIRECTION( '', ( 1.00000000000000, 0.000000000000000, 0.000000000000000 ) );
#74 =  ( LENGTH_UNIT(  )NAMED_UNIT( #62 )SI_UNIT( .MILLI., .METRE. ) );
#75 = ADVANCED_FACE( '', ( #92 ), #93, .F. );
#76 = ADVANCED_FACE( '', ( #94 ), #95, .T. );
#77 = ADVANCED_FACE( '', ( #96 ), #97, .T. );
#78 = ADVANCED_FACE( '', ( #98 ), #99, .T. );
#79 = ADVANCED_FACE( '', ( #100, #101 ), #102, .F. );
#80 = ADVANCED_FACE( '', ( #103 ), #104, .F. );
#81 = ADVANCED_FACE( '', ( #105, #106 ), #107, .T. );
#82 = ADVANCED_FACE( '', ( #108 ), #109, .T. );
#83 = ADVANCED_FACE( '', ( #110 ), #111, .F. );
#84 = ADVANCED_FACE( '', ( #112 ), #113, .F. );
#85 = ADVANCED_FACE( '', ( #114 ), #115, .T. );
#86 = ADVANCED_FACE( '', ( #116 ), #117, .T. );
#87 = ADVANCED_FACE( '', ( #118 ), #119, .T. );
#88 = ADVANCED_FACE( '', ( #120 ), #121, .T. );
#89 = ADVANCED_FACE( '', ( #122 ), #123, .T. );
#90 = ADVANCED_FACE( '', ( #124 ), #125, .T. );
#92 = FACE_OUTER_BOUND( '', #126, .T. );
#93 = CYLINDRICAL_SURFACE( '', #127, 40.0000000000000 );
#94 = FACE_OUTER_BOUND( '', #128, .T. );
#95 = CONICAL_SURFACE( '', #129, 60.0000000000000, 1.20362249298000 );
#96 = FACE_OUTER_BOUND( '', #130, .T. );
#97 = CYLINDRICAL_SURFACE( '', #131, 60.0000000000000 );
#98 = FACE_OUTER_BOUND( '', #132, .T. );
#99 = CYLINDRICAL_SURFACE( '', #133, 60.0000000000000 );
#100 = FACE_OUTER_BOUND( '', #134, .T. );
#101 = FACE_BOUND( '', #135, .T. );
#102 = PLANE( '', #136 );
#103 = FACE_OUTER_BOUND( '', #137, .T. );
#104 = CYLINDRICAL_SURFACE( '', #138, 40.0000000000000 );
#105 = FACE_OUTER_BOUND( '', #139, .T. );
#106 = FACE_BOUND( '', #140, .T. );
#107 = PLANE( '', #141 );
#108 = FACE_OUTER_BOUND( '', #142, .T. );
#109 = CONICAL_SURFACE( '', #143, 60.0000000000000, 1.20362249298000 );
#110 = FACE_OUTER_BOUND( '', #144, .T. );
#111 = TOROIDAL_SURFACE( '', #145, 65.0000000000000, 5.00000000000000 );
#112 = FACE_OUTER_BOUND( '', #146, .T. );
#113 = TOROIDAL_SURFACE( '', #147, 65.0000000000000, 5.00000000000000 );
#114 = FACE_OUTER_BOUND( '', #148, .T. );
#115 = CYLINDRICAL_SURFACE( '', #149, 60.0000000000000 );
#116 = FACE_OUTER_BOUND( '', #150, .T. );
#117 = CYLINDRICAL_SURFACE( '', #151, 60.0000000000000 );
#118 = FACE_OUTER_BOUND( '', #152, .T. );
#119 = CONICAL_SURFACE( '', #153, 60.0000000000000, 1.20362249298000 );
#120 = FACE_OUTER_BOUND( '', #154, .T. );
#121 = TOROIDAL_SURFACE( '', #155, 118.035805861000, 2.50000000000000 );
#122 = FACE_OUTER_BOUND( '', #156, .T. );
#123 = CONICAL_SURFACE( '', #157, 60.0000000000000, 1.20362249298000 );
#124 = FACE_OUTER_BOUND( '', #158, .T. );
#125 = TOROIDAL_SURFACE( '', #159, 118.035805861000, 2.50000000000000 );
#126 = EDGE_LOOP( '', ( #160, #161, #162, #163 ) );
#127 = AXIS2_PLACEMENT_3D( '', #164, #165, #166 );
#128 = EDGE_LOOP( '', ( #167, #168, #169, #170 ) );
#129 = AXIS2_PLACEMENT_3D( '', #171, #172, #173 );
#130 = EDGE_LOOP( '', ( #174, #175, #176, #177 ) );
#131 = AXIS2_PLACEMENT_3D( '', #178, #179, #180 );
#132 = EDGE_LOOP( '', ( #181, #182, #183, #184 ) );
#133 = AXIS2_PLACEMENT_3D( '', #185, #186, #187 );
#134 = EDGE_LOOP( '', ( #188, #189 ) );
#135 = EDGE_LOOP( '', ( #190, #191 ) );
#136 = AXIS2_PLACEMENT_3D( '', #192, #193, #194 );
#137 = EDGE_LOOP( '', ( #195, #196, #197, #198 ) );
#138 = AXIS2_PLACEMENT_3D( '', #199, #200, #201 );
#139 = EDGE_LOOP( '', ( #202, #203 ) );
#140 = EDGE_LOOP( '', ( #204, #205 ) );
#141 = AXIS2_PLACEMENT_3D( '', #206, #207, #208 );
#142 = EDGE_LOOP( '', ( #209, #210, #211, #212 ) );
#143 = AXIS2_PLACEMENT_3D( '', #213, #214, #215 );
#144 = EDGE_LOOP( '', ( #216, #217, #218, #219 ) );
#145 = AXIS2_PLACEMENT_3D( '', #220, #221, #222 );
#146 = EDGE_LOOP( '', ( #223, #224, #225, #226 ) );
#147 = AXIS2_PLACEMENT_3D( '', #227, #228, #229 );
#148 = EDGE_LOOP( '', ( #230, #231, #232, #233 ) );
#149 = AXIS2_PLACEMENT_3D( '', #234, #235, #236 );
#150 = EDGE_LOOP( '', ( #237, #238, #239, #240 ) );
#151 = AXIS2_PLACEMENT_3D( '', #241, #242, #243 );
#152 = EDGE_LOOP( '', ( #244, #245, #246, #247 ) );
#153 = AXIS2_PLACEMENT_3D( '', #248, #249, #250 );
#154 = EDGE_LOOP( '', ( #251, #252, #253, #254 ) );
#155 = AXIS2_PLACEMENT_3D( '', #255, #256, #257 );
#156 = EDGE_LOOP( '', ( #258, #259, #260, #261 ) );
#157 = AXIS2_PLACEMENT_3D( '', #262, #263, #264 );
#158 = EDGE_LOOP( '', ( #265, #266, #267, #268 ) );
#159 = AXIS2_PLACEMENT_3D( '', #269, #270, #271 );
#160 = ORIENTED_EDGE( '', *, *, #272, .F. );
#161 = ORIENTED_EDGE( '', *, *, #273, .F. );
#162 = ORIENTED_EDGE( '', *, *, #274, .T. );
#163 = ORIENTED_EDGE( '', *, *, #275, .T. );
#164 = CARTESIAN_POINT( '', ( -4.44089209850000E-015, 50.0000000000000, 2.66453525910000E-015 ) );
#165 = DIRECTION( '', ( -0.000000000000000, 1.00000000000000, 0.000000000000000 ) );
#166 = DIRECTION( '', ( 1.00000000000000, 0.000000000000000, 0.000000000000000 ) );
#167 = ORIENTED_EDGE( '', *, *, #276, .T. );
#168 = ORIENTED_EDGE( '', *, *, #277, .T. );
#169 = ORIENTED_EDGE( '', *, *, #278, .F. );
#170 = ORIENTED_EDGE( '', *, *, #279, .T. );
#171 = CARTESIAN_POINT( '', ( 0.000000000000000, 25.0000000000000, 0.000000000000000 ) );
#172 = DIRECTION( '', ( -0.000000000000000, -1.00000000000000, 0.000000000000000 ) );
#173 = DIRECTION( '', ( 0.479425538604204, 0.000000000000000, 0.877582561890373 ) );
#174 = ORIENTED_EDGE( '', *, *, #280, .F. );
#175 = ORIENTED_EDGE( '', *, *, #281, .T. );
#176 = ORIENTED_EDGE( '', *, *, #282, .T. );
#177 = ORIENTED_EDGE( '', *, *, #283, .F. );
#178 = CARTESIAN_POINT( '', ( 0.000000000000000, 0.000000000000000, 0.000000000000000 ) );
#179 = DIRECTION( '', ( -0.000000000000000, -1.00000000000000, -0.000000000000000 ) );
#180 = DIRECTION( '', ( 0.479425538604204, -0.000000000000000, 0.877582561890373 ) );
#181 = ORIENTED_EDGE( '', *, *, #284, .F. );
#182 = ORIENTED_EDGE( '', *, *, #283, .T. );
#183 = ORIENTED_EDGE( '', *, *, #285, .T. );
#184 = ORIENTED_EDGE( '', *, *, #281, .F. );
#185 = CARTESIAN_POINT( '', ( 0.000000000000000, 0.000000000000000, 0.000000000000000 ) );
#186 = DIRECTION( '', ( -0.000000000000000, -1.00000000000000, -0.000000000000000 ) );
#187 = DIRECTION( '', ( 0.479425538604204, -0.000000000000000, 0.877582561890373 ) );
#188 = ORIENTED_EDGE( '', *, *, #285, .F. );
#189 = ORIENTED_EDGE( '', *, *, #282, .F. );
#190 = ORIENTED_EDGE( '', *, *, #273, .T. );
#191 = ORIENTED_EDGE( '', *, *, #286, .T. );
#192 = CARTESIAN_POINT( '', ( 0.000000000000000, -50.0000000000000, 0.000000000000000 ) );
#193 = DIRECTION( '', ( 0.000000000000000, 1.00000000000000, 0.000000000000000 ) );
#194 = DIRECTION( '', ( 1.00000000000000, 0.000000000000000, -0.000000000000000 ) );
#195 = ORIENTED_EDGE( '', *, *, #274, .F. );
#196 = ORIENTED_EDGE( '', *, *, #286, .F. );
#197 = ORIENTED_EDGE( '', *, *, #272, .T. );
#198 = ORIENTED_EDGE( '', *, *, #287, .T. );
#199 = CARTESIAN_POINT( '', ( -4.44089209850000E-015, 50.0000000000000, 2.66453525910000E-015 ) );
#200 = DIRECTION( '', ( -0.000000000000000, 1.00000000000000, 0.000000000000000 ) );
#201 = DIRECTION( '', ( 1.00000000000000, 0.000000000000000, 0.000000000000000 ) );
#202 = ORIENTED_EDGE( '', *, *, #288, .T. );
#203 = ORIENTED_EDGE( '', *, *, #289, .T. );
#204 = ORIENTED_EDGE( '', *, *, #287, .F. );
#205 = ORIENTED_EDGE( '', *, *, #275, .F. );
#206 = CARTESIAN_POINT( '', ( 0.000000000000000, 50.0000000000000, 60.0000000000000 ) );
#207 = DIRECTION( '', ( 0.000000000000000, 1.00000000000000, 0.000000000000000 ) );
#208 = DIRECTION( '', ( 1.00000000000000, 0.000000000000000, -0.000000000000000 ) );
#209 = ORIENTED_EDGE( '', *, *, #278, .T. );
#210 = ORIENTED_EDGE( '', *, *, #290, .T. );
#211 = ORIENTED_EDGE( '', *, *, #276, .F. );
#212 = ORIENTED_EDGE( '', *, *, #291, .T. );
#213 = CARTESIAN_POINT( '', ( 0.000000000000000, 25.0000000000000, 0.000000000000000 ) );
#214 = DIRECTION( '', ( -0.000000000000000, -1.00000000000000, 0.000000000000000 ) );
#215 = DIRECTION( '', ( 0.479425538604204, 0.000000000000000, 0.877582561890373 ) );
#216 = ORIENTED_EDGE( '', *, *, #292, .T. );
#217 = ORIENTED_EDGE( '', *, *, #293, .T. );
#218 = ORIENTED_EDGE( '', *, *, #291, .F. );
#219 = ORIENTED_EDGE( '', *, *, #294, .F. );
#220 = CARTESIAN_POINT( '', ( 0.000000000000000, 28.4339954912000, 7.10542735760000E-015 ) );
#221 = DIRECTION( '', ( 0.000000000000000, -1.00000000000000, 0.000000000000000 ) );
#222 = DIRECTION( '', ( 0.479425538604204, 0.000000000000000, 0.877582561890372 ) );
#223 = ORIENTED_EDGE( '', *, *, #295, .T. );
#224 = ORIENTED_EDGE( '', *, *, #294, .T. );
#225 = ORIENTED_EDGE( '', *, *, #279, .F. );
#226 = ORIENTED_EDGE( '', *, *, #293, .F. );
#227 = CARTESIAN_POINT( '', ( 1.42108547152000E-014, 28.4339954912000, -8.88178419700000E-015 ) );
#228 = DIRECTION( '', ( 0.000000000000000, 1.00000000000000, -0.000000000000000 ) );
#229 = DIRECTION( '', ( 0.479425538604204, 0.000000000000000, 0.877582561890372 ) );
#230 = ORIENTED_EDGE( '', *, *, #296, .F. );
#231 = ORIENTED_EDGE( '', *, *, #289, .F. );
#232 = ORIENTED_EDGE( '', *, *, #297, .T. );
#233 = ORIENTED_EDGE( '', *, *, #292, .F. );
#234 = CARTESIAN_POINT( '', ( 0.000000000000000, 0.000000000000000, 0.000000000000000 ) );
#235 = DIRECTION( '', ( -0.000000000000000, -1.00000000000000, -0.000000000000000 ) );
#236 = DIRECTION( '', ( 0.479425538604204, -0.000000000000000, 0.877582561890373 ) );
#237 = ORIENTED_EDGE( '', *, *, #297, .F. );
#238 = ORIENTED_EDGE( '', *, *, #288, .F. );
#239 = ORIENTED_EDGE( '', *, *, #296, .T. );
#240 = ORIENTED_EDGE( '', *, *, #295, .F. );
#241 = CARTESIAN_POINT( '', ( 0.000000000000000, 0.000000000000000, 0.000000000000000 ) );
#242 = DIRECTION( '', ( -0.000000000000000, -1.00000000000000, -0.000000000000000 ) );
#243 = DIRECTION( '', ( 0.479425538604204, -0.000000000000000, 0.877582561890373 ) );
#244 = ORIENTED_EDGE( '', *, *, #298, .F. );
#245 = ORIENTED_EDGE( '', *, *, #299, .T. );
#246 = ORIENTED_EDGE( '', *, *, #280, .T. );
#247 = ORIENTED_EDGE( '', *, *, #300, .F. );
#248 = CARTESIAN_POINT( '', ( 0.000000000000000, -25.0000000000000, 0.000000000000000 ) );
#249 = DIRECTION( '', ( -0.000000000000000, 1.00000000000000, -0.000000000000000 ) );
#250 = DIRECTION( '', ( 0.479425538604204, 0.000000000000000, 0.877582561890373 ) );
#251 = ORIENTED_EDGE( '', *, *, #290, .F. );
#252 = ORIENTED_EDGE( '', *, *, #301, .T. );
#253 = ORIENTED_EDGE( '', *, *, #298, .T. );
#254 = ORIENTED_EDGE( '', *, *, #302, .F. );
#255 = CARTESIAN_POINT( '', ( 0.000000000000000, 1.50990331349000E-014, 0.000000000000000 ) );
#256 = DIRECTION( '', ( -0.000000000000000, 1.00000000000000, 0.000000000000000 ) );
#257 = DIRECTION( '', ( 0.479425538604204, 0.000000000000000, 0.877582561890372 ) );
#258 = ORIENTED_EDGE( '', *, *, #303, .F. );
#259 = ORIENTED_EDGE( '', *, *, #300, .T. );
#260 = ORIENTED_EDGE( '', *, *, #284, .T. );
#261 = ORIENTED_EDGE( '', *, *, #299, .F. );
#262 = CARTESIAN_POINT( '', ( 0.000000000000000, -25.0000000000000, 0.000000000000000 ) );
#263 = DIRECTION( '', ( -0.000000000000000, 1.00000000000000, -0.000000000000000 ) );
#264 = DIRECTION( '', ( 0.479425538604204, 0.000000000000000, 0.877582561890373 ) );
#265 = ORIENTED_EDGE( '', *, *, #277, .F. );
#266 = ORIENTED_EDGE( '', *, *, #302, .T. );
#267 = ORIENTED_EDGE( '', *, *, #303, .T. );
#268 = ORIENTED_EDGE( '', *, *, #301, .F. );
#269 = CARTESIAN_POINT( '', ( 0.000000000000000, 1.50990331349000E-014, 0.000000000000000 ) );
#270 = DIRECTION( '', ( -0.000000000000000, 1.00000000000000, 0.000000000000000 ) );
#271 = DIRECTION( '', ( 0.479425538604204, 0.000000000000000, 0.877582561890372 ) );
#272 = EDGE_CURVE( '', #304, #305, #306, .T. );
#273 = EDGE_CURVE( '', #307, #304, #308, .T. );
#274 = EDGE_CURVE( '', #307, #309, #310, .T. );
#275 = EDGE_CURVE( '', #309, #305, #311, .T. );
#276 = EDGE_CURVE( '', #312, #313, #314, .T. );
#277 = EDGE_CURVE( '', #313, #315, #316, .T. );
#278 = EDGE_CURVE( '', #317, #315, #318, .T. );
#279 = EDGE_CURVE( '', #317, #312, #319, .T. );
#280 = EDGE_CURVE( '', #320, #321, #322, .T. );
#281 = EDGE_CURVE( '', #320, #323, #324, .T. );
#282 = EDGE_CURVE( '', #323, #325, #326, .T. );
#283 = EDGE_CURVE( '', #321, #325, #327, .T. );
#284 = EDGE_CURVE( '', #321, #320, #328, .T. );
#285 = EDGE_CURVE( '', #325, #323, #329, .T. );
#286 = EDGE_CURVE( '', #304, #307, #330, .T. );
#287 = EDGE_CURVE( '', #305, #309, #331, .T. );
#288 = EDGE_CURVE( '', #332, #333, #334, .T. );
#289 = EDGE_CURVE( '', #333, #332, #335, .T. );
#290 = EDGE_CURVE( '', #315, #313, #336, .T. );
#291 = EDGE_CURVE( '', #312, #317, #337, .T. );
#292 = EDGE_CURVE( '', #338, #339, #340, .T. );
#293 = EDGE_CURVE( '', #339, #317, #341, .T. );
#294 = EDGE_CURVE( '', #338, #312, #342, .T. );
#295 = EDGE_CURVE( '', #339, #338, #343, .T. );
#296 = EDGE_CURVE( '', #332, #338, #344, .T. );
#297 = EDGE_CURVE( '', #333, #339, #345, .T. );
#298 = EDGE_CURVE( '', #346, #347, #348, .T. );
#299 = EDGE_CURVE( '', #346, #320, #349, .T. );
#300 = EDGE_CURVE( '', #347, #321, #350, .T. );
#301 = EDGE_CURVE( '', #315, #346, #351, .T. );
#302 = EDGE_CURVE( '', #313, #347, #352, .T. );
#303 = EDGE_CURVE( '', #347, #346, #353, .T. );
#304 = VERTEX_POINT( '', #354 );
#305 = VERTEX_POINT( '', #355 );
#306 = LINE( '', #356, #357 );
#307 = VERTEX_POINT( '', #358 );
#308 = CIRCLE( '', #359, 40.0000000000000 );
#309 = VERTEX_POINT( '', #360 );
#310 = LINE( '', #361, #362 );
#311 = CIRCLE( '', #363, 40.0000000000000 );
#312 = VERTEX_POINT( '', #364 );
#313 = VERTEX_POINT( '', #365 );
#314 = LINE( '', #366, #367 );
#315 = VERTEX_POINT( '', #368 );
#316 = CIRCLE( '', #369, 118.933253560000 );
#317 = VERTEX_POINT( '', #370 );
#318 = LINE( '', #371, #372 );
#319 = CIRCLE( '', #373, 63.2051046035000 );
#320 = VERTEX_POINT( '', #374 );
#321 = VERTEX_POINT( '', #375 );
#322 = CIRCLE( '', #376, 60.0000000000000 );
#323 = VERTEX_POINT( '', #377 );
#324 = LINE( '', #378, #379 );
#325 = VERTEX_POINT( '', #380 );
#326 = CIRCLE( '', #381, 60.0000000000000 );
#327 = LINE( '', #382, #383 );
#328 = CIRCLE( '', #384, 60.0000000000000 );
#329 = CIRCLE( '', #385, 60.0000000000000 );
#330 = CIRCLE( '', #386, 40.0000000000000 );
#331 = CIRCLE( '', #387, 40.0000000000000 );
#332 = VERTEX_POINT( '', #388 );
#333 = VERTEX_POINT( '', #389 );
#334 = CIRCLE( '', #390, 60.0000000000000 );
#335 = CIRCLE( '', #391, 60.0000000000000 );
#336 = CIRCLE( '', #392, 118.933253560000 );
#337 = CIRCLE( '', #393, 63.2051046035000 );
#338 = VERTEX_POINT( '', #394 );
#339 = VERTEX_POINT( '', #395 );
#340 = CIRCLE( '', #396, 60.0000000000000 );
#341 = CIRCLE( '', #397, 5.00000000000000 );
#342 = CIRCLE( '', #398, 5.00000000000000 );
#343 = CIRCLE( '', #399, 60.0000000000000 );
#344 = LINE( '', #400, #401 );
#345 = LINE( '', #402, #403 );
#346 = VERTEX_POINT( '', #404 );
#347 = VERTEX_POINT( '', #405 );
#348 = CIRCLE( '', #406, 118.933253560000 );
#349 = LINE( '', #407, #408 );
#350 = LINE( '', #409, #410 );
#351 = CIRCLE( '', #411, 2.50000000000000 );
#352 = CIRCLE( '', #412, 2.50000000000000 );
#353 = CIRCLE( '', #413, 118.933253560000 );
#354 = CARTESIAN_POINT( '', ( -40.0000000000000, -50.0000000000000, 7.56312245569000E-015 ) );
#355 = CARTESIAN_POINT( '', ( -40.0000000000000, 50.0000000000000, 7.56312245569000E-015 ) );
#356 = CARTESIAN_POINT( '', ( -40.0000000000000, 0.000000000000000, 7.56312245569000E-015 ) );
#357 = VECTOR( '', #414, 1000.00000000000 );
#358 = CARTESIAN_POINT( '', ( 40.0000000000000, -50.0000000000000, 2.66453525910000E-015 ) );
#359 = AXIS2_PLACEMENT_3D( '', #415, #416, #417 );
#360 = CARTESIAN_POINT( '', ( 40.0000000000000, 50.0000000000000, 2.66453525910000E-015 ) );
#361 = CARTESIAN_POINT( '', ( 40.0000000000000, 0.000000000000000, -7.13263913408000E-015 ) );
#362 = VECTOR( '', #418, 1000.00000000000 );
#363 = AXIS2_PLACEMENT_3D( '', #419, #420, #421 );
#364 = CARTESIAN_POINT( '', ( 30.3021413170000, 23.7672674602000, 55.4676976224000 ) );
#365 = CARTESIAN_POINT( '', ( 57.0196391458000, 2.33336401551000, 104.373749353000 ) );
#366 = CARTESIAN_POINT( '', ( 42.8925857310000, 13.6666820078000, 78.5143515331000 ) );
#367 = VECTOR( '', #422, 1000.00000000000 );
#368 = CARTESIAN_POINT( '', ( -57.0196391458000, 2.33336401551000, -104.373749353000 ) );
#369 = AXIS2_PLACEMENT_3D( '', #423, #424, #425 );
#370 = CARTESIAN_POINT( '', ( -30.3021413170000, 23.7672674602000, -55.4676976224000 ) );
#371 = CARTESIAN_POINT( '', ( -42.8925857310000, 13.6666820078000, -78.5143515331000 ) );
#372 = VECTOR( '', #426, 1000.00000000000 );
#373 = AXIS2_PLACEMENT_3D( '', #427, #428, #429 );
#374 = CARTESIAN_POINT( '', ( -28.7655323163000, -25.0000000000000, -52.6549537134000 ) );
#375 = CARTESIAN_POINT( '', ( 28.7655323163000, -25.0000000000000, 52.6549537134000 ) );
#376 = AXIS2_PLACEMENT_3D( '', #430, #431, #432 );
#377 = CARTESIAN_POINT( '', ( -28.7655323163000, -50.0000000000000, -52.6549537134000 ) );
#378 = CARTESIAN_POINT( '', ( -28.7655323163000, 0.000000000000000, -52.6549537134000 ) );
#379 = VECTOR( '', #433, 1000.00000000000 );
#380 = CARTESIAN_POINT( '', ( 28.7655323163000, -50.0000000000000, 52.6549537134000 ) );
#381 = AXIS2_PLACEMENT_3D( '', #434, #435, #436 );
#382 = CARTESIAN_POINT( '', ( 28.7655323163000, 0.000000000000000, 52.6549537134000 ) );
#383 = VECTOR( '', #437, 1000.00000000000 );
#384 = AXIS2_PLACEMENT_3D( '', #438, #439, #440 );
#385 = AXIS2_PLACEMENT_3D( '', #441, #442, #443 );
#386 = AXIS2_PLACEMENT_3D( '', #444, #445, #446 );
#387 = AXIS2_PLACEMENT_3D( '', #447, #448, #449 );
#388 = CARTESIAN_POINT( '', ( 28.7655323163000, 50.0000000000000, 52.6549537134000 ) );
#389 = CARTESIAN_POINT( '', ( -28.7655323163000, 50.0000000000000, -52.6549537134000 ) );
#390 = AXIS2_PLACEMENT_3D( '', #450, #451, #452 );
#391 = AXIS2_PLACEMENT_3D( '', #453, #454, #455 );
#392 = AXIS2_PLACEMENT_3D( '', #456, #457, #458 );
#393 = AXIS2_PLACEMENT_3D( '', #459, #460, #461 );
#394 = CARTESIAN_POINT( '', ( 28.7655323163000, 28.4339954912000, 52.6549537134000 ) );
#395 = CARTESIAN_POINT( '', ( -28.7655323163000, 28.4339954912000, -52.6549537134000 ) );
#396 = AXIS2_PLACEMENT_3D( '', #462, #463, #464 );
#397 = AXIS2_PLACEMENT_3D( '', #465, #466, #467 );
#398 = AXIS2_PLACEMENT_3D( '', #468, #469, #470 );
#399 = AXIS2_PLACEMENT_3D( '', #471, #472, #473 );
#400 = CARTESIAN_POINT( '', ( 28.7655323163000, 0.000000000000000, 52.6549537134000 ) );
#401 = VECTOR( '', #474, 1000.00000000000 );
#402 = CARTESIAN_POINT( '', ( -28.7655323163000, 0.000000000000000, -52.6549537134000 ) );
#403 = VECTOR( '', #475, 1000.00000000000 );
#404 = CARTESIAN_POINT( '', ( -57.0196391458000, -2.33336401551000, -104.373749353000 ) );
#405 = CARTESIAN_POINT( '', ( 57.0196391458000, -2.33336401551000, 104.373749353000 ) );
#406 = AXIS2_PLACEMENT_3D( '', #476, #477, #478 );
#407 = CARTESIAN_POINT( '', ( -42.8925857310000, -13.6666820078000, -78.5143515331000 ) );
#408 = VECTOR( '', #479, 1000.00000000000 );
#409 = CARTESIAN_POINT( '', ( 42.8925857310000, -13.6666820078000, 78.5143515331000 ) );
#410 = VECTOR( '', #480, 1000.00000000000 );
#411 = AXIS2_PLACEMENT_3D( '', #481, #482, #483 );
#412 = AXIS2_PLACEMENT_3D( '', #484, #485, #486 );
#413 = AXIS2_PLACEMENT_3D( '', #487, #488, #489 );
#414 = DIRECTION( '', ( -0.000000000000000, 1.00000000000000, -0.000000000000000 ) );
#415 = CARTESIAN_POINT( '', ( -4.44089209850000E-015, -50.0000000000000, 2.66453525910000E-015 ) );
#416 = DIRECTION( '', ( -0.000000000000000, 1.00000000000000, 0.000000000000000 ) );
#417 = DIRECTION( '', ( 1.00000000000000, 0.000000000000000, 0.000000000000000 ) );
#418 = DIRECTION( '', ( -0.000000000000000, 1.00000000000000, -0.000000000000000 ) );
#419 = CARTESIAN_POINT( '', ( -4.44089209850000E-015, 50.0000000000000, 2.66453525910000E-015 ) );
#420 = DIRECTION( '', ( -0.000000000000000, 1.00000000000000, 0.000000000000000 ) );
#421 = DIRECTION( '', ( 1.00000000000000, 0.000000000000000, 0.000000000000000 ) );
#422 = DIRECTION( '', ( 0.447469719957861, -0.358979079308888, 0.819087828220745 ) );
#423 = CARTESIAN_POINT( '', ( 0.000000000000000, 2.33336401551000, 0.000000000000000 ) );
#424 = DIRECTION( '', ( -0.000000000000000, 1.00000000000000, 0.000000000000000 ) );
#425 = DIRECTION( '', ( 1.00000000000000, 0.000000000000000, 0.000000000000000 ) );
#426 = DIRECTION( '', ( -0.447469719957861, -0.358979079308888, -0.819087828220745 ) );
#427 = CARTESIAN_POINT( '', ( 0.000000000000000, 23.7672674602000, 0.000000000000000 ) );
#428 = DIRECTION( '', ( 0.000000000000000, -1.00000000000000, -0.000000000000000 ) );
#429 = DIRECTION( '', ( 1.00000000000000, 0.000000000000000, 0.000000000000000 ) );
#430 = CARTESIAN_POINT( '', ( 0.000000000000000, -25.0000000000000, 0.000000000000000 ) );
#431 = DIRECTION( '', ( -0.000000000000000, 1.00000000000000, 0.000000000000000 ) );
#432 = DIRECTION( '', ( 1.00000000000000, 0.000000000000000, 0.000000000000000 ) );
#433 = DIRECTION( '', ( -0.000000000000000, -1.00000000000000, -0.000000000000000 ) );
#434 = CARTESIAN_POINT( '', ( 0.000000000000000, -50.0000000000000, 0.000000000000000 ) );
#435 = DIRECTION( '', ( -0.000000000000000, 1.00000000000000, 0.000000000000000 ) );
#436 = DIRECTION( '', ( 1.00000000000000, 0.000000000000000, 0.000000000000000 ) );
#437 = DIRECTION( '', ( -0.000000000000000, -1.00000000000000, -0.000000000000000 ) );
#438 = CARTESIAN_POINT( '', ( 0.000000000000000, -25.0000000000000, 0.000000000000000 ) );
#439 = DIRECTION( '', ( -0.000000000000000, 1.00000000000000, 0.000000000000000 ) );
#440 = DIRECTION( '', ( 1.00000000000000, 0.000000000000000, 0.000000000000000 ) );
#441 = CARTESIAN_POINT( '', ( 0.000000000000000, -50.0000000000000, 0.000000000000000 ) );
#442 = DIRECTION( '', ( -0.000000000000000, 1.00000000000000, 0.000000000000000 ) );
#443 = DIRECTION( '', ( 1.00000000000000, 0.000000000000000, 0.000000000000000 ) );
#444 = CARTESIAN_POINT( '', ( -4.44089209850000E-015, -50.0000000000000, 2.66453525910000E-015 ) );
#445 = DIRECTION( '', ( -0.000000000000000, 1.00000000000000, 0.000000000000000 ) );
#446 = DIRECTION( '', ( 1.00000000000000, 0.000000000000000, 0.000000000000000 ) );
#447 = CARTESIAN_POINT( '', ( -4.44089209850000E-015, 50.0000000000000, 0.000000000000000 ) );
#448 = DIRECTION( '', ( -0.000000000000000, 1.00000000000000, 0.000000000000000 ) );
#449 = DIRECTION( '', ( 1.00000000000000, 0.000000000000000, 0.000000000000000 ) );
#450 = CARTESIAN_POINT( '', ( 0.000000000000000, 50.0000000000000, 0.000000000000000 ) );
#451 = DIRECTION( '', ( -0.000000000000000, 1.00000000000000, 0.000000000000000 ) );
#452 = DIRECTION( '', ( 1.00000000000000, 0.000000000000000, 0.000000000000000 ) );
#453 = CARTESIAN_POINT( '', ( 0.000000000000000, 50.0000000000000, 0.000000000000000 ) );
#454 = DIRECTION( '', ( -0.000000000000000, 1.00000000000000, 0.000000000000000 ) );
#455 = DIRECTION( '', ( 1.00000000000000, 0.000000000000000, 0.000000000000000 ) );
#456 = CARTESIAN_POINT( '', ( 0.000000000000000, 2.33336401551000, 0.000000000000000 ) );
#457 = DIRECTION( '', ( -0.000000000000000, 1.00000000000000, 0.000000000000000 ) );
#458 = DIRECTION( '', ( 1.00000000000000, 0.000000000000000, 0.000000000000000 ) );
#459 = CARTESIAN_POINT( '', ( 0.000000000000000, 23.7672674602000, 0.000000000000000 ) );
#460 = DIRECTION( '', ( 0.000000000000000, -1.00000000000000, -0.000000000000000 ) );
#461 = DIRECTION( '', ( 1.00000000000000, 0.000000000000000, 0.000000000000000 ) );
#462 = CARTESIAN_POINT( '', ( 0.000000000000000, 28.4339954912000, 0.000000000000000 ) );
#463 = DIRECTION( '', ( 0.000000000000000, -1.00000000000000, 0.000000000000000 ) );
#464 = DIRECTION( '', ( 1.00000000000000, 0.000000000000000, 0.000000000000000 ) );
#465 = CARTESIAN_POINT( '', ( -31.1626600093000, 28.4339954912000, -57.0428665229000 ) );
#466 = DIRECTION( '', ( 0.877582561890372, 0.000000000000000, -0.479425538604204 ) );
#467 = DIRECTION( '', ( 0.479425538604204, 0.000000000000000, 0.877582561890372 ) );
#468 = CARTESIAN_POINT( '', ( 31.1626600093000, 28.4339954912000, 57.0428665229000 ) );
#469 = DIRECTION( '', ( -0.877582561890372, 0.000000000000000, 0.479425538604204 ) );
#470 = DIRECTION( '', ( 0.479425538604204, 0.000000000000000, 0.877582561890372 ) );
#471 = CARTESIAN_POINT( '', ( 0.000000000000000, 28.4339954912000, 0.000000000000000 ) );
#472 = DIRECTION( '', ( 0.000000000000000, -1.00000000000000, 0.000000000000000 ) );
#473 = DIRECTION( '', ( 1.00000000000000, 0.000000000000000, 0.000000000000000 ) );
#474 = DIRECTION( '', ( -0.000000000000000, -1.00000000000000, -0.000000000000000 ) );
#475 = DIRECTION( '', ( -0.000000000000000, -1.00000000000000, -0.000000000000000 ) );
#476 = CARTESIAN_POINT( '', ( 0.000000000000000, -2.33336401551000, 0.000000000000000 ) );
#477 = DIRECTION( '', ( -0.000000000000000, 1.00000000000000, 0.000000000000000 ) );
#478 = DIRECTION( '', ( 1.00000000000000, 0.000000000000000, 0.000000000000000 ) );
#479 = DIRECTION( '', ( 0.447469719957861, -0.358979079308888, 0.819087828220745 ) );
#480 = DIRECTION( '', ( -0.447469719957861, -0.358979079308888, -0.819087828220745 ) );
#481 = CARTESIAN_POINT( '', ( -56.5893797997000, 1.50990331349000E-014, -103.586164903000 ) );
#482 = DIRECTION( '', ( -0.877582561890372, 0.000000000000000, 0.479425538604204 ) );
#483 = DIRECTION( '', ( 0.479425538604204, 0.000000000000000, 0.877582561890372 ) );
#484 = CARTESIAN_POINT( '', ( 56.5893797997000, 1.50990331349000E-014, 103.586164903000 ) );
#485 = DIRECTION( '', ( 0.877582561890372, 0.000000000000000, -0.479425538604204 ) );
#486 = DIRECTION( '', ( 0.479425538604204, 0.000000000000000, 0.877582561890372 ) );
#487 = CARTESIAN_POINT( '', ( 0.000000000000000, -2.33336401551000, 0.000000000000000 ) );
#488 = DIRECTION( '', ( -0.000000000000000, 1.00000000000000, 0.000000000000000 ) );
#489 = DIRECTION( '', ( 1.00000000000000, 0.000000000000000, 0.000000000000000 ) );
ENDSEC;
END-ISO-10303-21;
