ISO-10303-21;
HEADER;
/* Generated by software containing ST-Developer
 * from STEP Tools, Inc. (www.steptools.com) 
 */

FILE_DESCRIPTION(
/* description */ (''),
/* implementation_level */ '2;1');

FILE_NAME(
/* name */ 'C:\\Users\\Hp\\Desktop\\Usinage caisse a savon\\CAS-9.stp',

/* time_stamp */ '2024-05-10T19:39:29+02:00',
/* author */ ('Hp'),
/* organization */ (''),
/* preprocessor_version */ 'ST-DEVELOPER v18.1',
/* originating_system */ 'Autodesk Inventor 2022',
/* authorisation */ '');

FILE_SCHEMA (('AUTOMOTIVE_DESIGN { 1 0 10303 214 3 1 1 }'));
ENDSEC;

DATA;
#10=MECHANICAL_DESIGN_GEOMETRIC_PRESENTATION_REPRESENTATION('',(#13),#169);
#11=SHAPE_REPRESENTATION_RELATIONSHIP('SRR','None',#176,#12);
#12=ADVANCED_BREP_SHAPE_REPRESENTATION('',(#14),#168);
#13=STYLED_ITEM('',(#185),#14);
#14=MANIFOLD_SOLID_BREP('Solide8',#84);
#15=FACE_BOUND('',#29,.T.);
#16=FACE_BOUND('',#32,.T.);
#17=PLANE('',#113);
#18=PLANE('',#117);
#19=CYLINDRICAL_SURFACE('',#111,17.5);
#20=CYLINDRICAL_SURFACE('',#115,13.9);
#21=FACE_OUTER_BOUND('',#26,.T.);
#22=FACE_OUTER_BOUND('',#27,.T.);
#23=FACE_OUTER_BOUND('',#28,.T.);
#24=FACE_OUTER_BOUND('',#30,.T.);
#25=FACE_OUTER_BOUND('',#31,.T.);
#26=EDGE_LOOP('',(#60,#61,#62,#63,#64));
#27=EDGE_LOOP('',(#65,#66,#67,#68,#69));
#28=EDGE_LOOP('',(#70));
#29=EDGE_LOOP('',(#71));
#30=EDGE_LOOP('',(#72,#73,#74,#75));
#31=EDGE_LOOP('',(#76));
#32=EDGE_LOOP('',(#77));
#33=LINE('',#150,#36);
#34=LINE('',#156,#37);
#35=LINE('',#163,#38);
#36=VECTOR('',#124,17.);
#37=VECTOR('',#131,17.5);
#38=VECTOR('',#140,13.9);
#39=CIRCLE('',#108,16.5);
#40=CIRCLE('',#109,17.5);
#41=CIRCLE('',#110,17.5);
#42=CIRCLE('',#112,17.5);
#43=CIRCLE('',#114,13.9);
#44=CIRCLE('',#116,13.9);
#45=VERTEX_POINT('',#147);
#46=VERTEX_POINT('',#149);
#47=VERTEX_POINT('',#151);
#48=VERTEX_POINT('',#155);
#49=VERTEX_POINT('',#159);
#50=VERTEX_POINT('',#162);
#51=EDGE_CURVE('',#45,#45,#39,.T.);
#52=EDGE_CURVE('',#45,#46,#33,.T.);
#53=EDGE_CURVE('',#46,#47,#40,.T.);
#54=EDGE_CURVE('',#47,#46,#41,.T.);
#55=EDGE_CURVE('',#47,#48,#34,.T.);
#56=EDGE_CURVE('',#48,#48,#42,.T.);
#57=EDGE_CURVE('',#49,#49,#43,.T.);
#58=EDGE_CURVE('',#49,#50,#35,.T.);
#59=EDGE_CURVE('',#50,#50,#44,.T.);
#60=ORIENTED_EDGE('',*,*,#51,.T.);
#61=ORIENTED_EDGE('',*,*,#52,.T.);
#62=ORIENTED_EDGE('',*,*,#53,.T.);
#63=ORIENTED_EDGE('',*,*,#54,.T.);
#64=ORIENTED_EDGE('',*,*,#52,.F.);
#65=ORIENTED_EDGE('',*,*,#53,.F.);
#66=ORIENTED_EDGE('',*,*,#54,.F.);
#67=ORIENTED_EDGE('',*,*,#55,.T.);
#68=ORIENTED_EDGE('',*,*,#56,.T.);
#69=ORIENTED_EDGE('',*,*,#55,.F.);
#70=ORIENTED_EDGE('',*,*,#51,.F.);
#71=ORIENTED_EDGE('',*,*,#57,.T.);
#72=ORIENTED_EDGE('',*,*,#57,.F.);
#73=ORIENTED_EDGE('',*,*,#58,.T.);
#74=ORIENTED_EDGE('',*,*,#59,.T.);
#75=ORIENTED_EDGE('',*,*,#58,.F.);
#76=ORIENTED_EDGE('',*,*,#56,.F.);
#77=ORIENTED_EDGE('',*,*,#59,.F.);
#78=CONICAL_SURFACE('',#107,17.,0.785398163397451);
#79=ADVANCED_FACE('',(#21),#78,.T.);
#80=ADVANCED_FACE('',(#22),#19,.T.);
#81=ADVANCED_FACE('',(#23,#15),#17,.T.);
#82=ADVANCED_FACE('',(#24),#20,.F.);
#83=ADVANCED_FACE('',(#25,#16),#18,.F.);
#84=CLOSED_SHELL('',(#79,#80,#81,#82,#83));
#85=DERIVED_UNIT_ELEMENT(#88,1.);
#86=DERIVED_UNIT_ELEMENT(#171,-3.);
#87=DIMENSIONAL_EXPONENTS(1.,0.,0.,0.,0.,0.,0.);
#88=(
CONVERSION_BASED_UNIT('gram',#90)
MASS_UNIT()
NAMED_UNIT(#87)
);
#89=(
MASS_UNIT()
NAMED_UNIT(*)
SI_UNIT(.KILO.,.GRAM.)
);
#90=MASS_MEASURE_WITH_UNIT(MASS_MEASURE(0.001),#89);
#91=DERIVED_UNIT((#85,#86));
#92=MEASURE_REPRESENTATION_ITEM('density measure',
POSITIVE_RATIO_MEASURE(7.85),#91);
#93=PROPERTY_DEFINITION_REPRESENTATION(#98,#95);
#94=PROPERTY_DEFINITION_REPRESENTATION(#99,#96);
#95=REPRESENTATION('material name',(#97),#168);
#96=REPRESENTATION('density',(#92),#168);
#97=DESCRIPTIVE_REPRESENTATION_ITEM('Acier','Acier');
#98=PROPERTY_DEFINITION('material property','material name',#178);
#99=PROPERTY_DEFINITION('material property','density of part',#178);
#100=DATE_TIME_ROLE('creation_date');
#101=APPLIED_DATE_AND_TIME_ASSIGNMENT(#102,#100,(#178));
#102=DATE_AND_TIME(#103,#104);
#103=CALENDAR_DATE(2023,7,5);
#104=LOCAL_TIME(0,0,0.,#105);
#105=COORDINATED_UNIVERSAL_TIME_OFFSET(0,0,.BEHIND.);
#106=AXIS2_PLACEMENT_3D('placement',#145,#118,#119);
#107=AXIS2_PLACEMENT_3D('',#146,#120,#121);
#108=AXIS2_PLACEMENT_3D('',#148,#122,#123);
#109=AXIS2_PLACEMENT_3D('',#152,#125,#126);
#110=AXIS2_PLACEMENT_3D('',#153,#127,#128);
#111=AXIS2_PLACEMENT_3D('',#154,#129,#130);
#112=AXIS2_PLACEMENT_3D('',#157,#132,#133);
#113=AXIS2_PLACEMENT_3D('',#158,#134,#135);
#114=AXIS2_PLACEMENT_3D('',#160,#136,#137);
#115=AXIS2_PLACEMENT_3D('',#161,#138,#139);
#116=AXIS2_PLACEMENT_3D('',#164,#141,#142);
#117=AXIS2_PLACEMENT_3D('',#165,#143,#144);
#118=DIRECTION('axis',(0.,0.,1.));
#119=DIRECTION('refdir',(1.,0.,0.));
#120=DIRECTION('center_axis',(0.,0.,-1.));
#121=DIRECTION('ref_axis',(-1.,0.,0.));
#122=DIRECTION('center_axis',(0.,0.,-1.));
#123=DIRECTION('ref_axis',(-1.,0.,0.));
#124=DIRECTION('',(0.707106781186549,8.65956056235495E-17,-0.707106781186546));
#125=DIRECTION('center_axis',(0.,0.,1.));
#126=DIRECTION('ref_axis',(-1.,0.,0.));
#127=DIRECTION('center_axis',(0.,0.,1.));
#128=DIRECTION('ref_axis',(-1.,0.,0.));
#129=DIRECTION('center_axis',(0.,0.,1.));
#130=DIRECTION('ref_axis',(1.,0.,0.));
#131=DIRECTION('',(0.,0.,-1.));
#132=DIRECTION('center_axis',(0.,0.,1.));
#133=DIRECTION('ref_axis',(1.,0.,0.));
#134=DIRECTION('center_axis',(0.,0.,1.));
#135=DIRECTION('ref_axis',(1.,0.,0.));
#136=DIRECTION('center_axis',(0.,0.,-1.));
#137=DIRECTION('ref_axis',(-1.,0.,0.));
#138=DIRECTION('center_axis',(0.,0.,1.));
#139=DIRECTION('ref_axis',(-1.,0.,0.));
#140=DIRECTION('',(0.,0.,-1.));
#141=DIRECTION('center_axis',(0.,0.,-1.));
#142=DIRECTION('ref_axis',(-1.,0.,0.));
#143=DIRECTION('center_axis',(0.,0.,1.));
#144=DIRECTION('ref_axis',(1.,0.,0.));
#145=CARTESIAN_POINT('',(0.,0.,0.));
#146=CARTESIAN_POINT('Origin',(0.,0.,40.5));
#147=CARTESIAN_POINT('',(16.5,-2.02066721859313E-15,41.));
#148=CARTESIAN_POINT('Origin',(0.,0.,41.));
#149=CARTESIAN_POINT('',(17.5,2.14313189850787E-15,40.));
#150=CARTESIAN_POINT('',(17.,2.0818995585505E-15,40.5));
#151=CARTESIAN_POINT('',(-17.5,-2.14313189850787E-15,40.));
#152=CARTESIAN_POINT('Origin',(0.,0.,40.));
#153=CARTESIAN_POINT('Origin',(0.,0.,40.));
#154=CARTESIAN_POINT('Origin',(0.,0.,0.));
#155=CARTESIAN_POINT('',(-17.5,-2.14313189850787E-15,0.));
#156=CARTESIAN_POINT('',(-17.5,-2.14313189850787E-15,0.));
#157=CARTESIAN_POINT('Origin',(0.,0.,0.));
#158=CARTESIAN_POINT('Origin',(0.,0.,41.));
#159=CARTESIAN_POINT('',(13.9,1.70225905081482E-15,41.));
#160=CARTESIAN_POINT('Origin',(0.,0.,41.));
#161=CARTESIAN_POINT('Origin',(0.,0.,0.));
#162=CARTESIAN_POINT('',(13.9,1.70225905081482E-15,0.));
#163=CARTESIAN_POINT('',(13.9,1.70225905081482E-15,0.));
#164=CARTESIAN_POINT('Origin',(0.,0.,0.));
#165=CARTESIAN_POINT('Origin',(0.,0.,0.));
#166=UNCERTAINTY_MEASURE_WITH_UNIT(LENGTH_MEASURE(0.01),#170,
'DISTANCE_ACCURACY_VALUE',
'Maximum model space distance between geometric entities at asserted c
onnectivities');
#167=UNCERTAINTY_MEASURE_WITH_UNIT(LENGTH_MEASURE(0.01),#170,
'DISTANCE_ACCURACY_VALUE',
'Maximum model space distance between geometric entities at asserted c
onnectivities');
#168=(
GEOMETRIC_REPRESENTATION_CONTEXT(3)
GLOBAL_UNCERTAINTY_ASSIGNED_CONTEXT((#166))
GLOBAL_UNIT_ASSIGNED_CONTEXT((#170,#172,#173))
REPRESENTATION_CONTEXT('','3D')
);
#169=(
GEOMETRIC_REPRESENTATION_CONTEXT(3)
GLOBAL_UNCERTAINTY_ASSIGNED_CONTEXT((#167))
GLOBAL_UNIT_ASSIGNED_CONTEXT((#170,#172,#173))
REPRESENTATION_CONTEXT('','3D')
);
#170=(
LENGTH_UNIT()
NAMED_UNIT(*)
SI_UNIT(.MILLI.,.METRE.)
);
#171=(
LENGTH_UNIT()
NAMED_UNIT(*)
SI_UNIT(.CENTI.,.METRE.)
);
#172=(
NAMED_UNIT(*)
PLANE_ANGLE_UNIT()
SI_UNIT($,.RADIAN.)
);
#173=(
NAMED_UNIT(*)
SI_UNIT($,.STERADIAN.)
SOLID_ANGLE_UNIT()
);
#174=SHAPE_DEFINITION_REPRESENTATION(#175,#176);
#175=PRODUCT_DEFINITION_SHAPE('',$,#178);
#176=SHAPE_REPRESENTATION('',(#106),#168);
#177=PRODUCT_DEFINITION_CONTEXT('part definition',#182,'design');
#178=PRODUCT_DEFINITION('MM56 - 1201','CAS-9',#179,#177);
#179=PRODUCT_DEFINITION_FORMATION('',$,#184);
#180=PRODUCT_RELATED_PRODUCT_CATEGORY('CAS-9','CAS-9',(#184));
#181=APPLICATION_PROTOCOL_DEFINITION('international standard',
'automotive_design',2009,#182);
#182=APPLICATION_CONTEXT(
'Core Data for Automotive Mechanical Design Process');
#183=PRODUCT_CONTEXT('part definition',#182,'mechanical');
#184=PRODUCT('MM56 - 1201','CAS-9',$,(#183));
#185=PRESENTATION_STYLE_ASSIGNMENT((#186));
#186=SURFACE_STYLE_USAGE(.BOTH.,#189);
#187=SURFACE_STYLE_RENDERING_WITH_PROPERTIES($,#193,(#188));
#188=SURFACE_STYLE_TRANSPARENT(0.);
#189=SURFACE_SIDE_STYLE('',(#190,#187));
#190=SURFACE_STYLE_FILL_AREA(#191);
#191=FILL_AREA_STYLE('',(#192));
#192=FILL_AREA_STYLE_COLOUR('',#193);
#193=COLOUR_RGB('',0.87843137254902,0.874509803921569,0.858823529411765);
ENDSEC;
END-ISO-10303-21;
