ISO-10303-21;
HEADER;
FILE_DESCRIPTION (( 'STEP AP214' ),
    '1' );
FILE_NAME ('CYC-020.step',
    '2024-04-03T09:40:00',
    ( '' ),
    ( '' ),
    'SwSTEP 2.0',
    'SolidWorks 2024',
    '' );
FILE_SCHEMA (( 'AUTOMOTIVE_DESIGN' ));
ENDSEC;

DATA;
#1 = CONICAL_SURFACE ( 'NONE', #162, 2.999999999999975131, 0.7853981633974522758 ) ;
#2 = FILL_AREA_STYLE_COLOUR ( '', #71 ) ;
#3 = EDGE_CURVE ( 'NONE', #103, #77, #255, .T. ) ;
#4 =( NAMED_UNIT ( * ) SI_UNIT ( $, .STERADIAN. ) SOLID_ANGLE_UNIT ( ) );
#5 = ORIENTED_EDGE ( 'NONE', *, *, #205, .T. ) ;
#6 = CARTESIAN_POINT ( 'NONE',  ( -270.0000000000000000, 0.000000000000000000, 3.999999999999983569 ) ) ;
#7 = ORIENTED_EDGE ( 'NONE', *, *, #152, .F. ) ;
#8 = CARTESIAN_POINT ( 'NONE',  ( 270.0000000000000000, 0.000000000000000000, 0.000000000000000000 ) ) ;
#9 = ORIENTED_EDGE ( 'NONE', *, *, #230, .F. ) ;
#10 = CARTESIAN_POINT ( 'NONE',  ( 270.0000000000000000, 0.000000000000000000, -2.999999999999975131 ) ) ;
#11 = CARTESIAN_POINT ( 'NONE',  ( -270.0000000000000000, 0.000000000000000000, -2.999999999999975131 ) ) ;
#12 = AXIS2_PLACEMENT_3D ( 'NONE', #135, #85, #201 ) ;
#13 =( GEOMETRIC_REPRESENTATION_CONTEXT ( 3 ) GLOBAL_UNCERTAINTY_ASSIGNED_CONTEXT ( ( #194 ) ) GLOBAL_UNIT_ASSIGNED_CONTEXT ( ( #137, #204, #228 ) ) REPRESENTATION_CONTEXT ( 'NONE', 'WORKASPACE' ) );
#14 = ADVANCED_FACE ( 'NONE', ( #193 ), #18, .T. ) ;
#15 = ADVANCED_FACE ( 'NONE', ( #20 ), #214, .F. ) ;
#16 = DIRECTION ( 'NONE',  ( 0.000000000000000000, 0.000000000000000000, -1.000000000000000000 ) ) ;
#17 = FILL_AREA_STYLE_COLOUR ( '', #198 ) ;
#18 = CONICAL_SURFACE ( 'NONE', #192, 2.999999999999975131, 0.7853981633974522758 ) ;
#19 =( NAMED_UNIT ( * ) PLANE_ANGLE_UNIT ( ) SI_UNIT ( $, .RADIAN. ) );
#20 = FACE_OUTER_BOUND ( 'NONE', #178, .T. ) ;
#21 = CIRCLE ( 'NONE', #84, 3.999999999999983569 ) ;
#22 =( NAMED_UNIT ( * ) PLANE_ANGLE_UNIT ( ) SI_UNIT ( $, .RADIAN. ) );
#23 = VECTOR ( 'NONE', #159, 1000.000000000000114 ) ;
#24 = ADVANCED_FACE ( 'NONE', ( #72 ), #127, .T. ) ;
#25 = ORIENTED_EDGE ( 'NONE', *, *, #251, .T. ) ;
#26 = MECHANICAL_DESIGN_GEOMETRIC_PRESENTATION_REPRESENTATION (  '', ( #67 ), #209 ) ;
#27 = LINE ( 'NONE', #6, #244 ) ;
#28 = EDGE_LOOP ( 'NONE', ( #179, #42, #46, #200 ) ) ;
#29 = SURFACE_SIDE_STYLE ('',( #81 ) ) ;
#30 = EDGE_LOOP ( 'NONE', ( #217, #98 ) ) ;
#31 = FACE_OUTER_BOUND ( 'NONE', #215, .T. ) ;
#32 = CLOSED_SHELL ( 'NONE', ( #82, #14, #56, #219, #24, #232, #15, #38 ) ) ;
#33 = DIRECTION ( 'NONE',  ( 0.000000000000000000, 0.000000000000000000, -1.000000000000000000 ) ) ;
#34 = CARTESIAN_POINT ( 'NONE',  ( -269.0000000000000000, 0.000000000000000000, 0.000000000000000000 ) ) ;
#35 = APPLICATION_PROTOCOL_DEFINITION ( 'draft international standard', 'automotive_design', 1998, #99 ) ;
#36 = CIRCLE ( 'NONE', #52, 3.999999999999983569 ) ;
#37 = DIRECTION ( 'NONE',  ( -1.000000000000000000, 0.000000000000000000, 0.000000000000000000 ) ) ;
#38 = ADVANCED_FACE ( 'NONE', ( #239 ), #237, .T. ) ;
#39 =( LENGTH_UNIT ( ) NAMED_UNIT ( * ) SI_UNIT ( .MILLI., .METRE. ) );
#40 = DIRECTION ( 'NONE',  ( 0.000000000000000000, 0.000000000000000000, -1.000000000000000000 ) ) ;
#41 = SURFACE_STYLE_USAGE ( .BOTH. , #213 ) ;
#42 = ORIENTED_EDGE ( 'NONE', *, *, #152, .T. ) ;
#43 = DIRECTION ( 'NONE',  ( -0.7071067811865446862, 0.000000000000000000, -0.7071067811865503483 ) ) ;
#44 = ORIENTED_EDGE ( 'NONE', *, *, #78, .T. ) ;
#45 = CARTESIAN_POINT ( 'NONE',  ( -269.0000000000000000, 4.898587196589392121E-16, -3.999999999999983569 ) ) ;
#46 = ORIENTED_EDGE ( 'NONE', *, *, #205, .F. ) ;
#47 = PLANE ( 'NONE',  #148 ) ;
#48 = CIRCLE ( 'NONE', #188, 2.999999999999975131 ) ;
#49 = DIRECTION ( 'NONE',  ( 0.000000000000000000, 0.000000000000000000, -1.000000000000000000 ) ) ;
#50 = CARTESIAN_POINT ( 'NONE',  ( 269.0000000000000000, 0.000000000000000000, 0.000000000000000000 ) ) ;
#51 = CARTESIAN_POINT ( 'NONE',  ( -270.0000000000000000, 0.000000000000000000, 0.000000000000000000 ) ) ;
#52 = AXIS2_PLACEMENT_3D ( 'NONE', #76, #164, #203 ) ;
#53 = DIRECTION ( 'NONE',  ( 0.000000000000000000, 0.000000000000000000, -1.000000000000000000 ) ) ;
#54 = STYLED_ITEM ( 'NONE', ( #199 ), #207 ) ;
#55 = SURFACE_STYLE_USAGE ( .BOTH. , #196 ) ;
#56 = ADVANCED_FACE ( 'NONE', ( #57 ), #112, .T. ) ;
#57 = FACE_OUTER_BOUND ( 'NONE', #223, .T. ) ;
#58 = DIRECTION ( 'NONE',  ( 1.000000000000000000, 0.000000000000000000, 0.000000000000000000 ) ) ;
#59 = AXIS2_PLACEMENT_3D ( 'NONE', #191, #186, #187 ) ;
#60 = DIRECTION ( 'NONE',  ( -1.000000000000000000, 0.000000000000000000, 0.000000000000000000 ) ) ;
#61 = FACE_OUTER_BOUND ( 'NONE', #30, .T. ) ;
#62 = ORIENTED_EDGE ( 'NONE', *, *, #233, .F. ) ;
#63 = DIRECTION ( 'NONE',  ( 0.000000000000000000, 0.000000000000000000, -1.000000000000000000 ) ) ;
#64 = VERTEX_POINT ( 'NONE', #225 ) ;
#65 = LINE ( 'NONE', #11, #231 ) ;
#66 = DIRECTION ( 'NONE',  ( 0.000000000000000000, 0.000000000000000000, -1.000000000000000000 ) ) ;
#67 = STYLED_ITEM ( 'NONE', ( #131 ), #24 ) ;
#68 = LINE ( 'NONE', #180, #122 ) ;
#69 = DIRECTION ( 'NONE',  ( 1.000000000000000000, 0.000000000000000000, 0.000000000000000000 ) ) ;
#70 = DIRECTION ( 'NONE',  ( 0.000000000000000000, 0.000000000000000000, -1.000000000000000000 ) ) ;
#71 = COLOUR_RGB ( '',0.7921568627450980005, 0.8196078431372548767, 0.9333333333333333481 ) ;
#72 = FACE_OUTER_BOUND ( 'NONE', #154, .T. ) ;
#73 = CONICAL_SURFACE ( 'NONE', #172, 2.999999999999975131, 0.7853981633974522758 ) ;
#74 = CIRCLE ( 'NONE', #216, 2.999999999999975131 ) ;
#75 = ORIENTED_EDGE ( 'NONE', *, *, #107, .T. ) ;
#76 = CARTESIAN_POINT ( 'NONE',  ( 269.0000000000000000, 0.000000000000000000, 0.000000000000000000 ) ) ;
#77 = VERTEX_POINT ( 'NONE', #102 ) ;
#78 = EDGE_CURVE ( 'NONE', #64, #103, #74, .T. ) ;
#79 = DIRECTION ( 'NONE',  ( -1.000000000000000000, -0.000000000000000000, -0.000000000000000000 ) ) ;
#80 = VERTEX_POINT ( 'NONE', #139 ) ;
#81 = SURFACE_STYLE_FILL_AREA ( #206 ) ;
#82 = ADVANCED_FACE ( 'NONE', ( #31 ), #1, .T. ) ;
#83 = EDGE_CURVE ( 'NONE', #77, #241, #36, .T. ) ;
#84 = AXIS2_PLACEMENT_3D ( 'NONE', #34, #124, #70 ) ;
#85 = DIRECTION ( 'NONE',  ( 1.000000000000000000, 0.000000000000000000, 0.000000000000000000 ) ) ;
#86 = AXIS2_PLACEMENT_3D ( 'NONE', #161, #138, #49 ) ;
#87 = CARTESIAN_POINT ( 'NONE',  ( -270.0000000000000000, 0.000000000000000000, 0.000000000000000000 ) ) ;
#88 = CARTESIAN_POINT ( 'NONE',  ( -270.0000000000000000, 0.000000000000000000, 0.000000000000000000 ) ) ;
#89 = PRESENTATION_LAYER_ASSIGNMENT (  '', '', ( #67 ) ) ;
#90 =( NAMED_UNIT ( * ) PLANE_ANGLE_UNIT ( ) SI_UNIT ( $, .RADIAN. ) );
#91 = EDGE_CURVE ( 'NONE', #241, #221, #27, .T. ) ;
#92 = DIRECTION ( 'NONE',  ( -1.000000000000000000, -0.000000000000000000, -0.000000000000000000 ) ) ;
#93 = DIRECTION ( 'NONE',  ( -1.000000000000000000, 0.000000000000000000, 0.000000000000000000 ) ) ;
#94 = EDGE_LOOP ( 'NONE', ( #134, #44, #155, #234 ) ) ;
#95 =( LENGTH_UNIT ( ) NAMED_UNIT ( * ) SI_UNIT ( .MILLI., .METRE. ) );
#96 = PRODUCT_DEFINITION_CONTEXT ( 'detailed design', #141, 'design' ) ;
#97 = STYLED_ITEM ( 'NONE', ( #254 ), #56 ) ;
#98 = ORIENTED_EDGE ( 'NONE', *, *, #174, .T. ) ;
#99 = APPLICATION_CONTEXT ( 'automotive_design' ) ;
#100 = EDGE_LOOP ( 'NONE', ( #7, #9, #158, #176 ) ) ;
#101 = COLOUR_RGB ( '',0.5019607843137254832, 0.5019607843137254832, 1.000000000000000000 ) ;
#102 = CARTESIAN_POINT ( 'NONE',  ( 269.0000000000000000, 4.898587196589392121E-16, -3.999999999999983569 ) ) ;
#103 = VERTEX_POINT ( 'NONE', #10 ) ;
#104 = DIRECTION ( 'NONE',  ( -1.000000000000000000, 0.000000000000000000, 0.000000000000000000 ) ) ;
#105 =( GEOMETRIC_REPRESENTATION_CONTEXT ( 3 ) GLOBAL_UNCERTAINTY_ASSIGNED_CONTEXT ( ( #252 ) ) GLOBAL_UNIT_ASSIGNED_CONTEXT ( ( #108, #90, #208 ) ) REPRESENTATION_CONTEXT ( 'NONE', 'WORKASPACE' ) );
#106 = AXIS2_PLACEMENT_3D ( 'NONE', #168, #37, #165 ) ;
#107 = EDGE_CURVE ( 'NONE', #77, #144, #115, .T. ) ;
#108 =( LENGTH_UNIT ( ) NAMED_UNIT ( * ) SI_UNIT ( .MILLI., .METRE. ) );
#109 = ORIENTED_EDGE ( 'NONE', *, *, #3, .F. ) ;
#110 = ORIENTED_EDGE ( 'NONE', *, *, #91, .T. ) ;
#111 = CIRCLE ( 'NONE', #12, 3.999999999999983569 ) ;
#112 = CYLINDRICAL_SURFACE ( 'NONE', #143, 3.999999999999983569 ) ;
#113 =( NAMED_UNIT ( * ) SI_UNIT ( $, .STERADIAN. ) SOLID_ANGLE_UNIT ( ) );
#114 = ORIENTED_EDGE ( 'NONE', *, *, #233, .T. ) ;
#115 = LINE ( 'NONE', #240, #173 ) ;
#116 = ORIENTED_EDGE ( 'NONE', *, *, #107, .F. ) ;
#117 = PRESENTATION_LAYER_ASSIGNMENT (  '', '', ( #54 ) ) ;
#118 = CARTESIAN_POINT ( 'NONE',  ( -270.0000000000000000, 3.673940397442028807E-16, 2.999999999999975131 ) ) ;
#119 = MECHANICAL_DESIGN_GEOMETRIC_PRESENTATION_REPRESENTATION (  '', ( #97 ), #184 ) ;
#120 = DIRECTION ( 'NONE',  ( 0.7071067811865446862, 0.000000000000000000, -0.7071067811865503483 ) ) ;
#121 = PRODUCT_CONTEXT ( 'NONE', #99, 'mechanical' ) ;
#122 = VECTOR ( 'NONE', #181, 1000.000000000000114 ) ;
#123 = VECTOR ( 'NONE', #43, 1000.000000000000114 ) ;
#124 = DIRECTION ( 'NONE',  ( 1.000000000000000000, 0.000000000000000000, 0.000000000000000000 ) ) ;
#125 = PRESENTATION_LAYER_ASSIGNMENT (  '', '', ( #97 ) ) ;
#126 = UNCERTAINTY_MEASURE_WITH_UNIT (LENGTH_MEASURE( 1.000000000000000082E-05 ), #39, 'distance_accuracy_value', 'NONE');
#127 = CYLINDRICAL_SURFACE ( 'NONE', #226, 3.999999999999983569 ) ;
#128 = FILL_AREA_STYLE ('',( #17 ) ) ;
#129 = SURFACE_STYLE_FILL_AREA ( #128 ) ;
#130 = CARTESIAN_POINT ( 'NONE',  ( 270.0000000000000000, 3.999999999999967137, 0.000000000000000000 ) ) ;
#131 = PRESENTATION_STYLE_ASSIGNMENT (( #55 ) ) ;
#132 = ORIENTED_EDGE ( 'NONE', *, *, #150, .T. ) ;
#133 = DIRECTION ( 'NONE',  ( 0.000000000000000000, 0.000000000000000000, 1.000000000000000000 ) ) ;
#134 = ORIENTED_EDGE ( 'NONE', *, *, #150, .F. ) ;
#135 = CARTESIAN_POINT ( 'NONE',  ( -269.0000000000000000, 0.000000000000000000, 0.000000000000000000 ) ) ;
#136 = CIRCLE ( 'NONE', #211, 3.999999999999983569 ) ;
#137 =( LENGTH_UNIT ( ) NAMED_UNIT ( * ) SI_UNIT ( .MILLI., .METRE. ) );
#138 = DIRECTION ( 'NONE',  ( -1.000000000000000000, -0.000000000000000000, -0.000000000000000000 ) ) ;
#139 = CARTESIAN_POINT ( 'NONE',  ( -270.0000000000000000, 4.286263797015710464E-16, 2.999999999999975131 ) ) ;
#140 = CARTESIAN_POINT ( 'NONE',  ( -269.0000000000000000, 0.000000000000000000, 3.999999999999983569 ) ) ;
#141 = APPLICATION_CONTEXT ( 'automotive_design' ) ;
#142 = APPLICATION_PROTOCOL_DEFINITION ( 'draft international standard', 'automotive_design', 1998, #141 ) ;
#143 = AXIS2_PLACEMENT_3D ( 'NONE', #87, #222, #133 ) ;
#144 = VERTEX_POINT ( 'NONE', #45 ) ;
#145 = PRODUCT_DEFINITION ( 'UNKNOWN', '', #182, #96 ) ;
#146 = FILL_AREA_STYLE ('',( #2 ) ) ;
#147 = PRODUCT_DEFINITION_SHAPE ( 'NONE', 'NONE',  #145 ) ;
#148 = AXIS2_PLACEMENT_3D ( 'NONE', #166, #69, #53 ) ;
#149 = DIRECTION ( 'NONE',  ( 0.000000000000000000, 0.000000000000000000, 1.000000000000000000 ) ) ;
#150 = EDGE_CURVE ( 'NONE', #64, #241, #68, .T. ) ;
#151 = PRODUCT ( 'CYC-020', 'CYC-020', '', ( #121 ) ) ;
#152 = EDGE_CURVE ( 'NONE', #80, #221, #220, .T. ) ;
#153 = SURFACE_STYLE_FILL_AREA ( #146 ) ;
#154 = EDGE_LOOP ( 'NONE', ( #116, #171, #110, #25 ) ) ;
#155 = ORIENTED_EDGE ( 'NONE', *, *, #3, .T. ) ;
#156 = ADVANCED_BREP_SHAPE_REPRESENTATION ( 'CYC-020', ( #207, #59 ), #105 ) ;
#157 = DIRECTION ( 'NONE',  ( -1.000000000000000000, -0.000000000000000000, -0.000000000000000000 ) ) ;
#158 = ORIENTED_EDGE ( 'NONE', *, *, #183, .T. ) ;
#159 = DIRECTION ( 'NONE',  ( 0.7071067811865446862, 8.659560562354966138E-17, 0.7071067811865503483 ) ) ;
#160 = ORIENTED_EDGE ( 'NONE', *, *, #78, .F. ) ;
#161 = CARTESIAN_POINT ( 'NONE',  ( -270.0000000000000000, 0.000000000000000000, 0.000000000000000000 ) ) ;
#162 = AXIS2_PLACEMENT_3D ( 'NONE', #177, #104, #66 ) ;
#163 = AXIS2_PLACEMENT_3D ( 'NONE', #130, #60, #40 ) ;
#164 = DIRECTION ( 'NONE',  ( 1.000000000000000000, -0.000000000000000000, -0.000000000000000000 ) ) ;
#165 = DIRECTION ( 'NONE',  ( 0.000000000000000000, 0.000000000000000000, -1.000000000000000000 ) ) ;
#166 = CARTESIAN_POINT ( 'NONE',  ( -270.0000000000000000, 3.999999999999967137, 0.000000000000000000 ) ) ;
#167 = UNCERTAINTY_MEASURE_WITH_UNIT (LENGTH_MEASURE( 1.000000000000000082E-05 ), #95, 'distance_accuracy_value', 'NONE');
#168 = CARTESIAN_POINT ( 'NONE',  ( 270.0000000000000000, 0.000000000000000000, 0.000000000000000000 ) ) ;
#169 = FACE_OUTER_BOUND ( 'NONE', #100, .T. ) ;
#170 = CARTESIAN_POINT ( 'NONE',  ( 270.0000000000000000, 0.000000000000000000, -2.999999999999975131 ) ) ;
#171 = ORIENTED_EDGE ( 'NONE', *, *, #248, .F. ) ;
#172 = AXIS2_PLACEMENT_3D ( 'NONE', #51, #229, #33 ) ;
#173 = VECTOR ( 'NONE', #79, 1000.000000000000000 ) ;
#174 = EDGE_CURVE ( 'NONE', #80, #197, #195, .T. ) ;
#175 = DIRECTION ( 'NONE',  ( 0.000000000000000000, 0.000000000000000000, -1.000000000000000000 ) ) ;
#176 = ORIENTED_EDGE ( 'NONE', *, *, #251, .F. ) ;
#177 = CARTESIAN_POINT ( 'NONE',  ( 270.0000000000000000, 0.000000000000000000, 0.000000000000000000 ) ) ;
#178 = EDGE_LOOP ( 'NONE', ( #62, #160 ) ) ;
#179 = ORIENTED_EDGE ( 'NONE', *, *, #174, .F. ) ;
#180 = CARTESIAN_POINT ( 'NONE',  ( 270.0000000000000000, -3.673940397442028807E-16, 2.999999999999975131 ) ) ;
#181 = DIRECTION ( 'NONE',  ( -0.7071067811865446862, -8.659560562354966138E-17, 0.7071067811865503483 ) ) ;
#182 = PRODUCT_DEFINITION_FORMATION_WITH_SPECIFIED_SOURCE ( 'ANY', '', #151, .NOT_KNOWN. ) ;
#183 = EDGE_CURVE ( 'NONE', #197, #144, #65, .T. ) ;
#184 =( GEOMETRIC_REPRESENTATION_CONTEXT ( 3 ) GLOBAL_UNCERTAINTY_ASSIGNED_CONTEXT ( ( #126 ) ) GLOBAL_UNIT_ASSIGNED_CONTEXT ( ( #39, #19, #113 ) ) REPRESENTATION_CONTEXT ( 'NONE', 'WORKASPACE' ) );
#185 = PRODUCT_RELATED_PRODUCT_CATEGORY ( 'part', '', ( #151 ) ) ;
#186 = DIRECTION ( 'NONE',  ( 0.000000000000000000, 0.000000000000000000, 1.000000000000000000 ) ) ;
#187 = DIRECTION ( 'NONE',  ( 1.000000000000000000, 0.000000000000000000, 0.000000000000000000 ) ) ;
#188 = AXIS2_PLACEMENT_3D ( 'NONE', #88, #92, #250 ) ;
#189 = SHAPE_DEFINITION_REPRESENTATION ( #147, #156 ) ;
#190 = AXIS2_PLACEMENT_3D ( 'NONE', #236, #93, #210 ) ;
#191 = CARTESIAN_POINT ( 'NONE',  ( 0.000000000000000000, 0.000000000000000000, 0.000000000000000000 ) ) ;
#192 = AXIS2_PLACEMENT_3D ( 'NONE', #212, #58, #175 ) ;
#193 = FACE_OUTER_BOUND ( 'NONE', #28, .T. ) ;
#194 = UNCERTAINTY_MEASURE_WITH_UNIT (LENGTH_MEASURE( 1.000000000000000082E-05 ), #137, 'distance_accuracy_value', 'NONE');
#195 = CIRCLE ( 'NONE', #86, 2.999999999999975131 ) ;
#196 = SURFACE_SIDE_STYLE ('',( #153 ) ) ;
#197 = VERTEX_POINT ( 'NONE', #242 ) ;
#198 = COLOUR_RGB ( '',0.7921568627450980005, 0.8196078431372548767, 0.9333333333333333481 ) ;
#199 = PRESENTATION_STYLE_ASSIGNMENT (( #246 ) ) ;
#200 = ORIENTED_EDGE ( 'NONE', *, *, #183, .F. ) ;
#201 = DIRECTION ( 'NONE',  ( 0.000000000000000000, 0.000000000000000000, -1.000000000000000000 ) ) ;
#202 = ORIENTED_EDGE ( 'NONE', *, *, #83, .F. ) ;
#203 = DIRECTION ( 'NONE',  ( 0.000000000000000000, 0.000000000000000000, -1.000000000000000000 ) ) ;
#204 =( NAMED_UNIT ( * ) PLANE_ANGLE_UNIT ( ) SI_UNIT ( $, .RADIAN. ) );
#205 = EDGE_CURVE ( 'NONE', #144, #221, #111, .T. ) ;
#206 = FILL_AREA_STYLE ('',( #227 ) ) ;
#207 = MANIFOLD_SOLID_BREP ( 'Symétrie1', #32 ) ;
#208 =( NAMED_UNIT ( * ) SI_UNIT ( $, .STERADIAN. ) SOLID_ANGLE_UNIT ( ) );
#209 =( GEOMETRIC_REPRESENTATION_CONTEXT ( 3 ) GLOBAL_UNCERTAINTY_ASSIGNED_CONTEXT ( ( #167 ) ) GLOBAL_UNIT_ASSIGNED_CONTEXT ( ( #95, #22, #4 ) ) REPRESENTATION_CONTEXT ( 'NONE', 'WORKASPACE' ) );
#210 = DIRECTION ( 'NONE',  ( 0.000000000000000000, 0.000000000000000000, -1.000000000000000000 ) ) ;
#211 = AXIS2_PLACEMENT_3D ( 'NONE', #50, #247, #16 ) ;
#212 = CARTESIAN_POINT ( 'NONE',  ( -270.0000000000000000, 0.000000000000000000, 0.000000000000000000 ) ) ;
#213 = SURFACE_SIDE_STYLE ('',( #129 ) ) ;
#214 = PLANE ( 'NONE',  #163 ) ;
#215 = EDGE_LOOP ( 'NONE', ( #114, #132, #218, #109 ) ) ;
#216 = AXIS2_PLACEMENT_3D ( 'NONE', #8, #245, #63 ) ;
#217 = ORIENTED_EDGE ( 'NONE', *, *, #230, .T. ) ;
#218 = ORIENTED_EDGE ( 'NONE', *, *, #248, .T. ) ;
#219 = ADVANCED_FACE ( 'NONE', ( #61 ), #47, .F. ) ;
#220 = LINE ( 'NONE', #118, #23 ) ;
#221 = VERTEX_POINT ( 'NONE', #140 ) ;
#222 = DIRECTION ( 'NONE',  ( -1.000000000000000000, -0.000000000000000000, -0.000000000000000000 ) ) ;
#223 = EDGE_LOOP ( 'NONE', ( #202, #75, #5, #243 ) ) ;
#224 = CIRCLE ( 'NONE', #106, 2.999999999999975131 ) ;
#225 = CARTESIAN_POINT ( 'NONE',  ( 270.0000000000000000, -4.286263797015710464E-16, 2.999999999999975131 ) ) ;
#226 = AXIS2_PLACEMENT_3D ( 'NONE', #235, #238, #149 ) ;
#227 = FILL_AREA_STYLE_COLOUR ( '', #101 ) ;
#228 =( NAMED_UNIT ( * ) SI_UNIT ( $, .STERADIAN. ) SOLID_ANGLE_UNIT ( ) );
#229 = DIRECTION ( 'NONE',  ( 1.000000000000000000, 0.000000000000000000, 0.000000000000000000 ) ) ;
#230 = EDGE_CURVE ( 'NONE', #197, #80, #48, .T. ) ;
#231 = VECTOR ( 'NONE', #120, 1000.000000000000114 ) ;
#232 = ADVANCED_FACE ( 'NONE', ( #169 ), #73, .T. ) ;
#233 = EDGE_CURVE ( 'NONE', #103, #64, #224, .T. ) ;
#234 = ORIENTED_EDGE ( 'NONE', *, *, #83, .T. ) ;
#235 = CARTESIAN_POINT ( 'NONE',  ( -270.0000000000000000, 0.000000000000000000, 0.000000000000000000 ) ) ;
#236 = CARTESIAN_POINT ( 'NONE',  ( 270.0000000000000000, 0.000000000000000000, 0.000000000000000000 ) ) ;
#237 = CONICAL_SURFACE ( 'NONE', #190, 2.999999999999975131, 0.7853981633974522758 ) ;
#238 = DIRECTION ( 'NONE',  ( -1.000000000000000000, -0.000000000000000000, -0.000000000000000000 ) ) ;
#239 = FACE_OUTER_BOUND ( 'NONE', #94, .T. ) ;
#240 = CARTESIAN_POINT ( 'NONE',  ( -270.0000000000000000, 4.898587196589392121E-16, -3.999999999999983569 ) ) ;
#241 = VERTEX_POINT ( 'NONE', #253 ) ;
#242 = CARTESIAN_POINT ( 'NONE',  ( -270.0000000000000000, 0.000000000000000000, -2.999999999999975131 ) ) ;
#243 = ORIENTED_EDGE ( 'NONE', *, *, #91, .F. ) ;
#244 = VECTOR ( 'NONE', #157, 1000.000000000000000 ) ;
#245 = DIRECTION ( 'NONE',  ( -1.000000000000000000, 0.000000000000000000, 0.000000000000000000 ) ) ;
#246 = SURFACE_STYLE_USAGE ( .BOTH. , #29 ) ;
#247 = DIRECTION ( 'NONE',  ( 1.000000000000000000, -0.000000000000000000, -0.000000000000000000 ) ) ;
#248 = EDGE_CURVE ( 'NONE', #241, #77, #136, .T. ) ;
#249 = MECHANICAL_DESIGN_GEOMETRIC_PRESENTATION_REPRESENTATION (  '', ( #54 ), #13 ) ;
#250 = DIRECTION ( 'NONE',  ( 0.000000000000000000, 0.000000000000000000, -1.000000000000000000 ) ) ;
#251 = EDGE_CURVE ( 'NONE', #221, #144, #21, .T. ) ;
#252 = UNCERTAINTY_MEASURE_WITH_UNIT (LENGTH_MEASURE( 1.000000000000000082E-05 ), #108, 'distance_accuracy_value', 'NONE');
#253 = CARTESIAN_POINT ( 'NONE',  ( 269.0000000000000000, 0.000000000000000000, 3.999999999999983569 ) ) ;
#254 = PRESENTATION_STYLE_ASSIGNMENT (( #41 ) ) ;
#255 = LINE ( 'NONE', #170, #123 ) ;
ENDSEC;
END-ISO-10303-21;
