ISO-10303-21;
HEADER;
FILE_DESCRIPTION(('CATIA V5 STEP','CAx-IF Rec.Pracs.--- Model Styling and Organization---1.4--- 2014-01-23','CAx-IF Rec.Pracs.--- Geometric and Assembly Validation Properties ---4.2---2014-10-09','CAx-IF Rec.Pracs.---3D Tessellated Data Validation Properties---0.5---2014-09-14'),'2;1');

FILE_NAME('C:\\Users\\s558957\\Desktop\\CRABE_CALE_MC_W639.stp','2024-05-29T07:58:37+00:00',('SAFRAN AIRCRAFT ENGINES'),('SAFRAN'),'CATIA Version 5-6 Release 2018 SP4 HF70','CATIA V5 STEP AP242','none');

FILE_SCHEMA(('AP242_MANAGED_MODEL_BASED_3D_ENGINEERING_MIM_LF  {1 0 10303 442 1 1 4}'));

ENDSEC;
DATA;
#5=PRODUCT('CRABE_CALE_MC_W639','','',(#2)) ;
#2=PRODUCT_CONTEXT(' ',#1,'mechanical') ;
#1=APPLICATION_CONTEXT('managed model based 3d engineering') ;
#10=PRODUCT_DEFINITION('',' ',#6,#3) ;
#3=PRODUCT_DEFINITION_CONTEXT('part definition',#1,' ') ;
#537=REPRESENTATION('',(#540,#543,#546),#16) ;
#550=REPRESENTATION('',(#553,#554,#555,#556,#557),#16) ;
#11=PRODUCT_DEFINITION_SHAPE(' ',' ',#10) ;
#538=PROPERTY_DEFINITION('geometric validation property','',#535) ;
#551=PROPERTY_DEFINITION('geometric validation property','',#11) ;
#535=SHAPE_ASPECT('','Solid',#11,.F.) ;
#549=MECHANICAL_DESIGN_GEOMETRIC_PRESENTATION_REPRESENTATION(' ',(#246,#264,#293,#325,#338,#367,#399,#412,#31),#16) ;
#19=SHAPE_REPRESENTATION(' ',(#18),#16) ;
#543=MEASURE_REPRESENTATION_ITEM('volume measure',VOLUME_MEASURE(210659.770276),#542) ;
#546=MEASURE_REPRESENTATION_ITEM('wetted area measure',AREA_MEASURE(50622.0532236),#545) ;
#556=MEASURE_REPRESENTATION_ITEM('volume measure',VOLUME_MEASURE(210659.770276),#542) ;
#557=MEASURE_REPRESENTATION_ITEM('wetted area measure',AREA_MEASURE(50622.0532236),#545) ;
#542=DERIVED_UNIT((#541)) ;
#545=DERIVED_UNIT((#544)) ;
#541=DERIVED_UNIT_ELEMENT(#12,3.) ;
#544=DERIVED_UNIT_ELEMENT(#12,2.) ;
#7=PRODUCT_CATEGORY('part','specification') ;
#17=CARTESIAN_POINT(' ',(0.,0.,0.)) ;
#33=CARTESIAN_POINT('Axis2P3D Location',(36.0624458405,83.,36.0624458405)) ;
#38=CARTESIAN_POINT('Axis2P3D Location',(36.0624458405,83.,36.0624458405)) ;
#42=CARTESIAN_POINT('Vertex',(31.5624458405,83.,36.0624458405)) ;
#44=CARTESIAN_POINT('Vertex',(40.5624458405,83.,36.0624458405)) ;
#47=CARTESIAN_POINT('Line Origine',(31.5624458405,78.1550000004,36.0624458405)) ;
#51=CARTESIAN_POINT('Vertex',(31.5624458405,73.,36.0624458405)) ;
#54=CARTESIAN_POINT('Axis2P3D Location',(36.0624458405,73.,36.0624458405)) ;
#58=CARTESIAN_POINT('Vertex',(40.5624458405,73.,36.0624458405)) ;
#61=CARTESIAN_POINT('Line Origine',(40.5624458405,78.1550000004,36.0624458405)) ;
#73=CARTESIAN_POINT('Axis2P3D Location',(36.0624458405,83.,36.0624458405)) ;
#78=CARTESIAN_POINT('Axis2P3D Location',(36.0624458405,73.,36.0624458405)) ;
#90=CARTESIAN_POINT('Axis2P3D Location',(-65.,73.,0.)) ;
#95=CARTESIAN_POINT('Axis2P3D Location',(0.,73.,0.)) ;
#99=CARTESIAN_POINT('Vertex',(57.0428665229,73.,31.1626600093)) ;
#101=CARTESIAN_POINT('Vertex',(-57.0428665229,73.,-31.1626600093)) ;
#104=CARTESIAN_POINT('Axis2P3D Location',(0.,73.,0.)) ;
#117=CARTESIAN_POINT('Axis2P3D Location',(-36.0624458405,73.,-36.0624458405)) ;
#121=CARTESIAN_POINT('Vertex',(-31.5624458405,73.,-36.0624458405)) ;
#123=CARTESIAN_POINT('Vertex',(-40.5624458405,73.,-36.0624458405)) ;
#126=CARTESIAN_POINT('Axis2P3D Location',(-36.0624458405,73.,-36.0624458405)) ;
#135=CARTESIAN_POINT('Axis2P3D Location',(0.,73.,0.)) ;
#139=CARTESIAN_POINT('Vertex',(-22.8171466091,73.,-12.4650640037)) ;
#141=CARTESIAN_POINT('Vertex',(22.8171466091,73.,12.4650640037)) ;
#144=CARTESIAN_POINT('Axis2P3D Location',(0.,73.,0.)) ;
#154=CARTESIAN_POINT('Axis2P3D Location',(0.,41.5,0.)) ;
#159=CARTESIAN_POINT('Line Origine',(57.0428665229,78.,31.1626600093)) ;
#163=CARTESIAN_POINT('Vertex',(57.0428665229,83.,31.1626600093)) ;
#166=CARTESIAN_POINT('Axis2P3D Location',(0.,83.,0.)) ;
#170=CARTESIAN_POINT('Vertex',(-57.0428665229,83.,-31.1626600093)) ;
#173=CARTESIAN_POINT('Line Origine',(-57.0428665229,78.,-31.1626600093)) ;
#185=CARTESIAN_POINT('Axis2P3D Location',(0.,83.,0.)) ;
#197=CARTESIAN_POINT('Axis2P3D Location',(0.,41.5,0.)) ;
#202=CARTESIAN_POINT('Line Origine',(-21.8,63.,8.00919006642E-015)) ;
#206=CARTESIAN_POINT('Vertex',(-21.8,43.,2.66973002214E-015)) ;
#208=CARTESIAN_POINT('Vertex',(-21.8,83.,2.66973002214E-015)) ;
#211=CARTESIAN_POINT('Axis2P3D Location',(0.,83.,0.)) ;
#215=CARTESIAN_POINT('Vertex',(21.8,83.,-2.47017495937E-014)) ;
#218=CARTESIAN_POINT('Line Origine',(21.8,63.,-2.47017495937E-014)) ;
#222=CARTESIAN_POINT('Vertex',(21.8,43.,-2.47017495937E-014)) ;
#225=CARTESIAN_POINT('Axis2P3D Location',(0.,43.,0.)) ;
#247=CARTESIAN_POINT('Axis2P3D Location',(0.,83.,0.)) ;
#252=CARTESIAN_POINT('Axis2P3D Location',(0.,43.,0.)) ;
#265=CARTESIAN_POINT('Axis2P3D Location',(-21.8,43.,0.)) ;
#274=CARTESIAN_POINT('Axis2P3D Location',(0.,43.,0.)) ;
#278=CARTESIAN_POINT('Vertex',(9.,43.,-1.01979700158E-014)) ;
#280=CARTESIAN_POINT('Vertex',(-9.,43.,1.10218211923E-015)) ;
#283=CARTESIAN_POINT('Axis2P3D Location',(0.,43.,0.)) ;
#294=CARTESIAN_POINT('Axis2P3D Location',(0.,41.5,0.)) ;
#299=CARTESIAN_POINT('Line Origine',(9.,24.,-1.01979700158E-014)) ;
#303=CARTESIAN_POINT('Vertex',(9.,5.,-1.01979700158E-014)) ;
#306=CARTESIAN_POINT('Line Origine',(-9.,24.,1.10218211923E-015)) ;
#310=CARTESIAN_POINT('Vertex',(-9.,5.,1.10218211923E-015)) ;
#313=CARTESIAN_POINT('Axis2P3D Location',(0.,5.,0.)) ;
#326=CARTESIAN_POINT('Axis2P3D Location',(0.,5.,0.)) ;
#339=CARTESIAN_POINT('Axis2P3D Location',(-9.,5.,0.)) ;
#344=CARTESIAN_POINT('Axis2P3D Location',(0.,5.,0.)) ;
#348=CARTESIAN_POINT('Vertex',(20.25,5.,-4.95981953655E-015)) ;
#350=CARTESIAN_POINT('Vertex',(-20.25,5.,2.47990976827E-015)) ;
#353=CARTESIAN_POINT('Axis2P3D Location',(0.,5.,0.)) ;
#368=CARTESIAN_POINT('Axis2P3D Location',(0.,41.5,0.)) ;
#373=CARTESIAN_POINT('Line Origine',(-20.25,2.5,7.43972930482E-015)) ;
#377=CARTESIAN_POINT('Vertex',(-20.25,0.,2.47990976827E-015)) ;
#380=CARTESIAN_POINT('Line Origine',(20.25,2.5,-4.95981953655E-015)) ;
#384=CARTESIAN_POINT('Vertex',(20.25,0.,-4.95981953655E-015)) ;
#387=CARTESIAN_POINT('Axis2P3D Location',(0.,0.,0.)) ;
#400=CARTESIAN_POINT('Axis2P3D Location',(0.,0.,0.)) ;
#413=CARTESIAN_POINT('Axis2P3D Location',(-26.,0.,0.)) ;
#418=CARTESIAN_POINT('Axis2P3D Location',(0.,0.,0.)) ;
#422=CARTESIAN_POINT('Vertex',(-22.8171466091,0.,-12.4650640037)) ;
#424=CARTESIAN_POINT('Vertex',(22.8171466091,0.,12.4650640037)) ;
#427=CARTESIAN_POINT('Axis2P3D Location',(0.,0.,0.)) ;
#441=CARTESIAN_POINT('Axis2P3D Location',(0.,41.5,0.)) ;
#446=CARTESIAN_POINT('Line Origine',(22.8171466091,36.5,12.4650640037)) ;
#451=CARTESIAN_POINT('Line Origine',(-22.8171466091,36.5,-12.4650640037)) ;
#470=CARTESIAN_POINT('Axis2P3D Location',(-36.0624458405,83.,-36.0624458405)) ;
#475=CARTESIAN_POINT('Axis2P3D Location',(-36.0624458405,83.,-36.0624458405)) ;
#479=CARTESIAN_POINT('Vertex',(-40.5624458405,83.,-36.0624458405)) ;
#481=CARTESIAN_POINT('Vertex',(-31.5624458405,83.,-36.0624458405)) ;
#484=CARTESIAN_POINT('Line Origine',(-40.5624458405,78.1550000004,-36.0624458405)) ;
#489=CARTESIAN_POINT('Line Origine',(-31.5624458405,78.1550000004,-36.0624458405)) ;
#501=CARTESIAN_POINT('Axis2P3D Location',(-36.0624458405,83.,-36.0624458405)) ;
#513=CARTESIAN_POINT('Axis2P3D Location',(0.,83.,0.)) ;
#540=CARTESIAN_POINT('centre point',(5.74398166155E-015,56.4984635767,9.2747751055E-015)) ;
#553=CARTESIAN_POINT('centre point',(5.74398166155E-015,56.4984635767,9.2747751055E-015)) ;
#554=CARTESIAN_POINT('bounding box corner point',(-64.9436187744,0.,-64.9949111938)) ;
#555=CARTESIAN_POINT('bounding box corner point',(64.9436187744,83.,64.9949111938)) ;
#8=PRODUCT_RELATED_PRODUCT_CATEGORY('part',$,(#5)) ;
#539=PROPERTY_DEFINITION_REPRESENTATION(#538,#537) ;
#552=PROPERTY_DEFINITION_REPRESENTATION(#551,#550) ;
#31=STYLED_ITEM(' ',(#30),#21) ;
#30=PRESENTATION_STYLE_ASSIGNMENT((#29)) ;
#245=PRESENTATION_STYLE_ASSIGNMENT((#244)) ;
#29=SURFACE_STYLE_USAGE(.BOTH.,#28) ;
#244=SURFACE_STYLE_USAGE(.BOTH.,#243) ;
#28=SURFACE_SIDE_STYLE(' ',(#25,#26)) ;
#243=SURFACE_SIDE_STYLE(' ',(#240,#241)) ;
#25=SURFACE_STYLE_FILL_AREA(#24) ;
#240=SURFACE_STYLE_FILL_AREA(#239) ;
#24=FILL_AREA_STYLE(' ',(#23)) ;
#239=FILL_AREA_STYLE(' ',(#238)) ;
#23=FILL_AREA_STYLE_COLOUR(' ',#22) ;
#238=FILL_AREA_STYLE_COLOUR(' ',#237) ;
#49=VECTOR('Line Direction',#48,1.) ;
#63=VECTOR('Line Direction',#62,1.) ;
#161=VECTOR('Line Direction',#160,1.) ;
#175=VECTOR('Line Direction',#174,1.) ;
#204=VECTOR('Line Direction',#203,1.) ;
#220=VECTOR('Line Direction',#219,1.) ;
#301=VECTOR('Line Direction',#300,1.) ;
#308=VECTOR('Line Direction',#307,1.) ;
#375=VECTOR('Line Direction',#374,1.) ;
#382=VECTOR('Line Direction',#381,1.) ;
#448=VECTOR('Line Direction',#447,1.) ;
#453=VECTOR('Line Direction',#452,1.) ;
#486=VECTOR('Line Direction',#485,1.) ;
#491=VECTOR('Line Direction',#490,1.) ;
#34=DIRECTION('Axis2P3D Direction',(0.,-1.,-0.)) ;
#35=DIRECTION('Axis2P3D XDirection',(1.,0.,0.)) ;
#39=DIRECTION('Axis2P3D Direction',(0.,-1.,-0.)) ;
#48=DIRECTION('Vector Direction',(0.,-1.,0.)) ;
#55=DIRECTION('Axis2P3D Direction',(0.,-1.,-0.)) ;
#62=DIRECTION('Vector Direction',(0.,-1.,0.)) ;
#74=DIRECTION('Axis2P3D Direction',(0.,-1.,-0.)) ;
#79=DIRECTION('Axis2P3D Direction',(0.,-1.,-0.)) ;
#91=DIRECTION('Axis2P3D Direction',(0.,-1.,0.)) ;
#92=DIRECTION('Axis2P3D XDirection',(1.,0.,0.)) ;
#96=DIRECTION('Axis2P3D Direction',(0.,-1.,0.)) ;
#105=DIRECTION('Axis2P3D Direction',(0.,-1.,0.)) ;
#118=DIRECTION('Axis2P3D Direction',(0.,-1.,0.)) ;
#127=DIRECTION('Axis2P3D Direction',(0.,-1.,0.)) ;
#136=DIRECTION('Axis2P3D Direction',(0.,-1.,0.)) ;
#145=DIRECTION('Axis2P3D Direction',(0.,-1.,0.)) ;
#155=DIRECTION('Axis2P3D Direction',(0.,-1.,0.)) ;
#156=DIRECTION('Axis2P3D XDirection',(-0.87758256189,-0.,-0.479425538604)) ;
#160=DIRECTION('Vector Direction',(0.,-1.,0.)) ;
#167=DIRECTION('Axis2P3D Direction',(0.,-1.,0.)) ;
#174=DIRECTION('Vector Direction',(0.,-1.,0.)) ;
#186=DIRECTION('Axis2P3D Direction',(0.,-1.,0.)) ;
#198=DIRECTION('Axis2P3D Direction',(0.,-1.,0.)) ;
#199=DIRECTION('Axis2P3D XDirection',(-1.,0.,1.22464679915E-016)) ;
#203=DIRECTION('Vector Direction',(0.,-1.,0.)) ;
#212=DIRECTION('Axis2P3D Direction',(0.,-1.,0.)) ;
#219=DIRECTION('Vector Direction',(0.,-1.,0.)) ;
#226=DIRECTION('Axis2P3D Direction',(0.,-1.,0.)) ;
#248=DIRECTION('Axis2P3D Direction',(0.,-1.,0.)) ;
#253=DIRECTION('Axis2P3D Direction',(0.,-1.,0.)) ;
#266=DIRECTION('Axis2P3D Direction',(0.,-1.,0.)) ;
#267=DIRECTION('Axis2P3D XDirection',(1.,0.,0.)) ;
#275=DIRECTION('Axis2P3D Direction',(0.,-1.,0.)) ;
#284=DIRECTION('Axis2P3D Direction',(0.,-1.,0.)) ;
#295=DIRECTION('Axis2P3D Direction',(0.,-1.,0.)) ;
#296=DIRECTION('Axis2P3D XDirection',(-1.,0.,1.22464679915E-016)) ;
#300=DIRECTION('Vector Direction',(0.,-1.,0.)) ;
#307=DIRECTION('Vector Direction',(0.,-1.,0.)) ;
#314=DIRECTION('Axis2P3D Direction',(0.,-1.,0.)) ;
#327=DIRECTION('Axis2P3D Direction',(0.,-1.,0.)) ;
#340=DIRECTION('Axis2P3D Direction',(0.,-1.,0.)) ;
#341=DIRECTION('Axis2P3D XDirection',(1.,0.,0.)) ;
#345=DIRECTION('Axis2P3D Direction',(0.,-1.,0.)) ;
#354=DIRECTION('Axis2P3D Direction',(0.,-1.,0.)) ;
#369=DIRECTION('Axis2P3D Direction',(0.,-1.,0.)) ;
#370=DIRECTION('Axis2P3D XDirection',(-1.,0.,1.22464679915E-016)) ;
#374=DIRECTION('Vector Direction',(0.,-1.,0.)) ;
#381=DIRECTION('Vector Direction',(0.,-1.,0.)) ;
#388=DIRECTION('Axis2P3D Direction',(0.,-1.,0.)) ;
#401=DIRECTION('Axis2P3D Direction',(0.,-1.,0.)) ;
#414=DIRECTION('Axis2P3D Direction',(0.,-1.,0.)) ;
#415=DIRECTION('Axis2P3D XDirection',(1.,0.,0.)) ;
#419=DIRECTION('Axis2P3D Direction',(0.,-1.,0.)) ;
#428=DIRECTION('Axis2P3D Direction',(0.,-1.,0.)) ;
#442=DIRECTION('Axis2P3D Direction',(0.,-1.,0.)) ;
#443=DIRECTION('Axis2P3D XDirection',(-0.87758256189,-0.,-0.479425538604)) ;
#447=DIRECTION('Vector Direction',(0.,-1.,0.)) ;
#452=DIRECTION('Vector Direction',(0.,-1.,0.)) ;
#471=DIRECTION('Axis2P3D Direction',(0.,-1.,-0.)) ;
#472=DIRECTION('Axis2P3D XDirection',(1.,0.,0.)) ;
#476=DIRECTION('Axis2P3D Direction',(0.,-1.,-0.)) ;
#485=DIRECTION('Vector Direction',(0.,-1.,0.)) ;
#490=DIRECTION('Vector Direction',(0.,-1.,0.)) ;
#502=DIRECTION('Axis2P3D Direction',(0.,-1.,-0.)) ;
#514=DIRECTION('Axis2P3D Direction',(0.,-1.,0.)) ;
#515=DIRECTION('Axis2P3D XDirection',(1.,0.,0.)) ;
#15=UNCERTAINTY_MEASURE_WITH_UNIT(LENGTH_MEASURE(0.005),#12,'distance_accuracy_value','CONFUSED CURVE UNCERTAINTY') ;
#18=AXIS2_PLACEMENT_3D(' ',#17,$,$) ;
#36=AXIS2_PLACEMENT_3D('Cylinder Axis2P3D',#33,#34,#35) ;
#40=AXIS2_PLACEMENT_3D('Circle Axis2P3D',#38,#39,$) ;
#56=AXIS2_PLACEMENT_3D('Circle Axis2P3D',#54,#55,$) ;
#75=AXIS2_PLACEMENT_3D('Circle Axis2P3D',#73,#74,$) ;
#80=AXIS2_PLACEMENT_3D('Circle Axis2P3D',#78,#79,$) ;
#93=AXIS2_PLACEMENT_3D('Plane Axis2P3D',#90,#91,#92) ;
#97=AXIS2_PLACEMENT_3D('Circle Axis2P3D',#95,#96,$) ;
#106=AXIS2_PLACEMENT_3D('Circle Axis2P3D',#104,#105,$) ;
#119=AXIS2_PLACEMENT_3D('Circle Axis2P3D',#117,#118,$) ;
#128=AXIS2_PLACEMENT_3D('Circle Axis2P3D',#126,#127,$) ;
#137=AXIS2_PLACEMENT_3D('Circle Axis2P3D',#135,#136,$) ;
#146=AXIS2_PLACEMENT_3D('Circle Axis2P3D',#144,#145,$) ;
#157=AXIS2_PLACEMENT_3D('Cylinder Axis2P3D',#154,#155,#156) ;
#168=AXIS2_PLACEMENT_3D('Circle Axis2P3D',#166,#167,$) ;
#187=AXIS2_PLACEMENT_3D('Circle Axis2P3D',#185,#186,$) ;
#200=AXIS2_PLACEMENT_3D('Cylinder Axis2P3D',#197,#198,#199) ;
#213=AXIS2_PLACEMENT_3D('Circle Axis2P3D',#211,#212,$) ;
#227=AXIS2_PLACEMENT_3D('Circle Axis2P3D',#225,#226,$) ;
#249=AXIS2_PLACEMENT_3D('Circle Axis2P3D',#247,#248,$) ;
#254=AXIS2_PLACEMENT_3D('Circle Axis2P3D',#252,#253,$) ;
#268=AXIS2_PLACEMENT_3D('Plane Axis2P3D',#265,#266,#267) ;
#276=AXIS2_PLACEMENT_3D('Circle Axis2P3D',#274,#275,$) ;
#285=AXIS2_PLACEMENT_3D('Circle Axis2P3D',#283,#284,$) ;
#297=AXIS2_PLACEMENT_3D('Cylinder Axis2P3D',#294,#295,#296) ;
#315=AXIS2_PLACEMENT_3D('Circle Axis2P3D',#313,#314,$) ;
#328=AXIS2_PLACEMENT_3D('Circle Axis2P3D',#326,#327,$) ;
#342=AXIS2_PLACEMENT_3D('Plane Axis2P3D',#339,#340,#341) ;
#346=AXIS2_PLACEMENT_3D('Circle Axis2P3D',#344,#345,$) ;
#355=AXIS2_PLACEMENT_3D('Circle Axis2P3D',#353,#354,$) ;
#371=AXIS2_PLACEMENT_3D('Cylinder Axis2P3D',#368,#369,#370) ;
#389=AXIS2_PLACEMENT_3D('Circle Axis2P3D',#387,#388,$) ;
#402=AXIS2_PLACEMENT_3D('Circle Axis2P3D',#400,#401,$) ;
#416=AXIS2_PLACEMENT_3D('Plane Axis2P3D',#413,#414,#415) ;
#420=AXIS2_PLACEMENT_3D('Circle Axis2P3D',#418,#419,$) ;
#429=AXIS2_PLACEMENT_3D('Circle Axis2P3D',#427,#428,$) ;
#444=AXIS2_PLACEMENT_3D('Cylinder Axis2P3D',#441,#442,#443) ;
#473=AXIS2_PLACEMENT_3D('Cylinder Axis2P3D',#470,#471,#472) ;
#477=AXIS2_PLACEMENT_3D('Circle Axis2P3D',#475,#476,$) ;
#503=AXIS2_PLACEMENT_3D('Circle Axis2P3D',#501,#502,$) ;
#516=AXIS2_PLACEMENT_3D('Plane Axis2P3D',#513,#514,#515) ;
#50=LINE('Line',#47,#49) ;
#64=LINE('Line',#61,#63) ;
#162=LINE('Line',#159,#161) ;
#176=LINE('Line',#173,#175) ;
#205=LINE('Line',#202,#204) ;
#221=LINE('Line',#218,#220) ;
#302=LINE('Line',#299,#301) ;
#309=LINE('Line',#306,#308) ;
#376=LINE('Line',#373,#375) ;
#383=LINE('Line',#380,#382) ;
#449=LINE('Line',#446,#448) ;
#454=LINE('Line',#451,#453) ;
#487=LINE('Line',#484,#486) ;
#492=LINE('Line',#489,#491) ;
#41=CIRCLE('generated circle',#40,4.5) ;
#57=CIRCLE('generated circle',#56,4.5) ;
#76=CIRCLE('generated circle',#75,4.5) ;
#81=CIRCLE('generated circle',#80,4.5) ;
#98=CIRCLE('generated circle',#97,65.) ;
#107=CIRCLE('generated circle',#106,65.) ;
#120=CIRCLE('generated circle',#119,4.5) ;
#129=CIRCLE('generated circle',#128,4.5) ;
#138=CIRCLE('generated circle',#137,26.) ;
#147=CIRCLE('generated circle',#146,26.) ;
#169=CIRCLE('generated circle',#168,65.) ;
#188=CIRCLE('generated circle',#187,65.) ;
#214=CIRCLE('generated circle',#213,21.8) ;
#228=CIRCLE('generated circle',#227,21.8) ;
#250=CIRCLE('generated circle',#249,21.8) ;
#255=CIRCLE('generated circle',#254,21.8) ;
#277=CIRCLE('generated circle',#276,9.) ;
#286=CIRCLE('generated circle',#285,9.) ;
#316=CIRCLE('generated circle',#315,9.) ;
#329=CIRCLE('generated circle',#328,9.) ;
#347=CIRCLE('generated circle',#346,20.25) ;
#356=CIRCLE('generated circle',#355,20.25) ;
#390=CIRCLE('generated circle',#389,20.25) ;
#403=CIRCLE('generated circle',#402,20.25) ;
#421=CIRCLE('generated circle',#420,26.) ;
#430=CIRCLE('generated circle',#429,26.) ;
#478=CIRCLE('generated circle',#477,4.5) ;
#504=CIRCLE('generated circle',#503,4.5) ;
#94=PLANE('',#93) ;
#269=PLANE('',#268) ;
#343=PLANE('',#342) ;
#417=PLANE('',#416) ;
#517=PLANE('',#516) ;
#37=CYLINDRICAL_SURFACE('generated cylinder',#36,4.5) ;
#158=CYLINDRICAL_SURFACE('generated cylinder',#157,65.) ;
#201=CYLINDRICAL_SURFACE('generated cylinder',#200,21.8) ;
#298=CYLINDRICAL_SURFACE('generated cylinder',#297,9.) ;
#372=CYLINDRICAL_SURFACE('generated cylinder',#371,20.25) ;
#445=CYLINDRICAL_SURFACE('generated cylinder',#444,26.) ;
#474=CYLINDRICAL_SURFACE('generated cylinder',#473,4.5) ;
#116=FACE_BOUND('',#113,.T.) ;
#134=FACE_BOUND('',#131,.T.) ;
#152=FACE_BOUND('',#149,.T.) ;
#291=FACE_BOUND('',#288,.T.) ;
#365=FACE_BOUND('',#362,.T.) ;
#439=FACE_BOUND('',#436,.T.) ;
#525=FACE_BOUND('',#522,.T.) ;
#529=FACE_BOUND('',#526,.T.) ;
#533=FACE_BOUND('',#530,.T.) ;
#46=EDGE_CURVE('',#43,#45,#41,.T.) ;
#53=EDGE_CURVE('',#52,#43,#50,.F.) ;
#60=EDGE_CURVE('',#52,#59,#57,.T.) ;
#65=EDGE_CURVE('',#59,#45,#64,.F.) ;
#77=EDGE_CURVE('',#45,#43,#76,.T.) ;
#82=EDGE_CURVE('',#59,#52,#81,.T.) ;
#103=EDGE_CURVE('',#100,#102,#98,.T.) ;
#108=EDGE_CURVE('',#102,#100,#107,.T.) ;
#125=EDGE_CURVE('',#122,#124,#120,.T.) ;
#130=EDGE_CURVE('',#124,#122,#129,.T.) ;
#143=EDGE_CURVE('',#140,#142,#138,.T.) ;
#148=EDGE_CURVE('',#142,#140,#147,.T.) ;
#165=EDGE_CURVE('',#100,#164,#162,.F.) ;
#172=EDGE_CURVE('',#164,#171,#169,.T.) ;
#177=EDGE_CURVE('',#102,#171,#176,.F.) ;
#189=EDGE_CURVE('',#171,#164,#188,.T.) ;
#210=EDGE_CURVE('',#207,#209,#205,.F.) ;
#217=EDGE_CURVE('',#216,#209,#214,.T.) ;
#224=EDGE_CURVE('',#223,#216,#221,.F.) ;
#229=EDGE_CURVE('',#223,#207,#228,.T.) ;
#251=EDGE_CURVE('',#209,#216,#250,.T.) ;
#256=EDGE_CURVE('',#207,#223,#255,.T.) ;
#282=EDGE_CURVE('',#279,#281,#277,.T.) ;
#287=EDGE_CURVE('',#281,#279,#286,.T.) ;
#305=EDGE_CURVE('',#304,#279,#302,.F.) ;
#312=EDGE_CURVE('',#311,#281,#309,.F.) ;
#317=EDGE_CURVE('',#311,#304,#316,.T.) ;
#330=EDGE_CURVE('',#304,#311,#329,.T.) ;
#352=EDGE_CURVE('',#349,#351,#347,.T.) ;
#357=EDGE_CURVE('',#351,#349,#356,.T.) ;
#379=EDGE_CURVE('',#378,#351,#376,.F.) ;
#386=EDGE_CURVE('',#385,#349,#383,.F.) ;
#391=EDGE_CURVE('',#385,#378,#390,.T.) ;
#404=EDGE_CURVE('',#378,#385,#403,.T.) ;
#426=EDGE_CURVE('',#423,#425,#421,.T.) ;
#431=EDGE_CURVE('',#425,#423,#430,.T.) ;
#450=EDGE_CURVE('',#425,#142,#449,.F.) ;
#455=EDGE_CURVE('',#423,#140,#454,.F.) ;
#483=EDGE_CURVE('',#480,#482,#478,.T.) ;
#488=EDGE_CURVE('',#124,#480,#487,.F.) ;
#493=EDGE_CURVE('',#122,#482,#492,.F.) ;
#505=EDGE_CURVE('',#482,#480,#504,.T.) ;
#32=CLOSED_SHELL('Closed Shell',(#72,#89,#153,#184,#196,#236,#263,#292,#324,#337,#366,#398,#411,#440,#462,#469,#500,#512,#534)) ;
#548=SHAPE_REPRESENTATION_RELATIONSHIP(' ',' ',#19,#547) ;
#66=EDGE_LOOP('',(#67,#68,#69,#70)) ;
#83=EDGE_LOOP('',(#84,#85,#86,#87)) ;
#109=EDGE_LOOP('',(#110,#111)) ;
#113=EDGE_LOOP('',(#114,#115)) ;
#131=EDGE_LOOP('',(#132,#133)) ;
#149=EDGE_LOOP('',(#150,#151)) ;
#178=EDGE_LOOP('',(#179,#180,#181,#182)) ;
#190=EDGE_LOOP('',(#191,#192,#193,#194)) ;
#230=EDGE_LOOP('',(#231,#232,#233,#234)) ;
#257=EDGE_LOOP('',(#258,#259,#260,#261)) ;
#270=EDGE_LOOP('',(#271,#272)) ;
#288=EDGE_LOOP('',(#289,#290)) ;
#318=EDGE_LOOP('',(#319,#320,#321,#322)) ;
#331=EDGE_LOOP('',(#332,#333,#334,#335)) ;
#358=EDGE_LOOP('',(#359,#360)) ;
#362=EDGE_LOOP('',(#363,#364)) ;
#392=EDGE_LOOP('',(#393,#394,#395,#396)) ;
#405=EDGE_LOOP('',(#406,#407,#408,#409)) ;
#432=EDGE_LOOP('',(#433,#434)) ;
#436=EDGE_LOOP('',(#437,#438)) ;
#456=EDGE_LOOP('',(#457,#458,#459,#460)) ;
#463=EDGE_LOOP('',(#464,#465,#466,#467)) ;
#494=EDGE_LOOP('',(#495,#496,#497,#498)) ;
#506=EDGE_LOOP('',(#507,#508,#509,#510)) ;
#518=EDGE_LOOP('',(#519,#520)) ;
#522=EDGE_LOOP('',(#523,#524)) ;
#526=EDGE_LOOP('',(#527,#528)) ;
#530=EDGE_LOOP('',(#531,#532)) ;
#67=ORIENTED_EDGE('',*,*,#46,.F.) ;
#68=ORIENTED_EDGE('',*,*,#53,.F.) ;
#69=ORIENTED_EDGE('',*,*,#60,.T.) ;
#70=ORIENTED_EDGE('',*,*,#65,.T.) ;
#84=ORIENTED_EDGE('',*,*,#77,.F.) ;
#85=ORIENTED_EDGE('',*,*,#65,.F.) ;
#86=ORIENTED_EDGE('',*,*,#82,.T.) ;
#87=ORIENTED_EDGE('',*,*,#53,.T.) ;
#110=ORIENTED_EDGE('',*,*,#103,.T.) ;
#111=ORIENTED_EDGE('',*,*,#108,.T.) ;
#114=ORIENTED_EDGE('',*,*,#82,.F.) ;
#115=ORIENTED_EDGE('',*,*,#60,.F.) ;
#132=ORIENTED_EDGE('',*,*,#125,.F.) ;
#133=ORIENTED_EDGE('',*,*,#130,.F.) ;
#150=ORIENTED_EDGE('',*,*,#143,.F.) ;
#151=ORIENTED_EDGE('',*,*,#148,.F.) ;
#179=ORIENTED_EDGE('',*,*,#103,.F.) ;
#180=ORIENTED_EDGE('',*,*,#165,.T.) ;
#181=ORIENTED_EDGE('',*,*,#172,.T.) ;
#182=ORIENTED_EDGE('',*,*,#177,.F.) ;
#191=ORIENTED_EDGE('',*,*,#108,.F.) ;
#192=ORIENTED_EDGE('',*,*,#177,.T.) ;
#193=ORIENTED_EDGE('',*,*,#189,.T.) ;
#194=ORIENTED_EDGE('',*,*,#165,.F.) ;
#231=ORIENTED_EDGE('',*,*,#210,.T.) ;
#232=ORIENTED_EDGE('',*,*,#217,.F.) ;
#233=ORIENTED_EDGE('',*,*,#224,.F.) ;
#234=ORIENTED_EDGE('',*,*,#229,.T.) ;
#258=ORIENTED_EDGE('',*,*,#224,.T.) ;
#259=ORIENTED_EDGE('',*,*,#251,.F.) ;
#260=ORIENTED_EDGE('',*,*,#210,.F.) ;
#261=ORIENTED_EDGE('',*,*,#256,.T.) ;
#271=ORIENTED_EDGE('',*,*,#256,.F.) ;
#272=ORIENTED_EDGE('',*,*,#229,.F.) ;
#289=ORIENTED_EDGE('',*,*,#282,.T.) ;
#290=ORIENTED_EDGE('',*,*,#287,.T.) ;
#319=ORIENTED_EDGE('',*,*,#305,.T.) ;
#320=ORIENTED_EDGE('',*,*,#287,.F.) ;
#321=ORIENTED_EDGE('',*,*,#312,.F.) ;
#322=ORIENTED_EDGE('',*,*,#317,.T.) ;
#332=ORIENTED_EDGE('',*,*,#312,.T.) ;
#333=ORIENTED_EDGE('',*,*,#282,.F.) ;
#334=ORIENTED_EDGE('',*,*,#305,.F.) ;
#335=ORIENTED_EDGE('',*,*,#330,.T.) ;
#359=ORIENTED_EDGE('',*,*,#352,.T.) ;
#360=ORIENTED_EDGE('',*,*,#357,.T.) ;
#363=ORIENTED_EDGE('',*,*,#317,.F.) ;
#364=ORIENTED_EDGE('',*,*,#330,.F.) ;
#393=ORIENTED_EDGE('',*,*,#379,.T.) ;
#394=ORIENTED_EDGE('',*,*,#352,.F.) ;
#395=ORIENTED_EDGE('',*,*,#386,.F.) ;
#396=ORIENTED_EDGE('',*,*,#391,.T.) ;
#406=ORIENTED_EDGE('',*,*,#386,.T.) ;
#407=ORIENTED_EDGE('',*,*,#357,.F.) ;
#408=ORIENTED_EDGE('',*,*,#379,.F.) ;
#409=ORIENTED_EDGE('',*,*,#404,.T.) ;
#433=ORIENTED_EDGE('',*,*,#426,.T.) ;
#434=ORIENTED_EDGE('',*,*,#431,.T.) ;
#437=ORIENTED_EDGE('',*,*,#404,.F.) ;
#438=ORIENTED_EDGE('',*,*,#391,.F.) ;
#457=ORIENTED_EDGE('',*,*,#431,.F.) ;
#458=ORIENTED_EDGE('',*,*,#450,.T.) ;
#459=ORIENTED_EDGE('',*,*,#148,.T.) ;
#460=ORIENTED_EDGE('',*,*,#455,.F.) ;
#464=ORIENTED_EDGE('',*,*,#426,.F.) ;
#465=ORIENTED_EDGE('',*,*,#455,.T.) ;
#466=ORIENTED_EDGE('',*,*,#143,.T.) ;
#467=ORIENTED_EDGE('',*,*,#450,.F.) ;
#495=ORIENTED_EDGE('',*,*,#483,.F.) ;
#496=ORIENTED_EDGE('',*,*,#488,.F.) ;
#497=ORIENTED_EDGE('',*,*,#130,.T.) ;
#498=ORIENTED_EDGE('',*,*,#493,.T.) ;
#507=ORIENTED_EDGE('',*,*,#505,.F.) ;
#508=ORIENTED_EDGE('',*,*,#493,.F.) ;
#509=ORIENTED_EDGE('',*,*,#125,.T.) ;
#510=ORIENTED_EDGE('',*,*,#488,.T.) ;
#519=ORIENTED_EDGE('',*,*,#189,.F.) ;
#520=ORIENTED_EDGE('',*,*,#172,.F.) ;
#523=ORIENTED_EDGE('',*,*,#46,.T.) ;
#524=ORIENTED_EDGE('',*,*,#77,.T.) ;
#527=ORIENTED_EDGE('',*,*,#483,.T.) ;
#528=ORIENTED_EDGE('',*,*,#505,.T.) ;
#531=ORIENTED_EDGE('',*,*,#251,.T.) ;
#532=ORIENTED_EDGE('',*,*,#217,.T.) ;
#21=MANIFOLD_SOLID_BREP('CALE_MC_W639',#32) ;
#43=VERTEX_POINT('',#42) ;
#45=VERTEX_POINT('',#44) ;
#52=VERTEX_POINT('',#51) ;
#59=VERTEX_POINT('',#58) ;
#100=VERTEX_POINT('',#99) ;
#102=VERTEX_POINT('',#101) ;
#122=VERTEX_POINT('',#121) ;
#124=VERTEX_POINT('',#123) ;
#140=VERTEX_POINT('',#139) ;
#142=VERTEX_POINT('',#141) ;
#164=VERTEX_POINT('',#163) ;
#171=VERTEX_POINT('',#170) ;
#207=VERTEX_POINT('',#206) ;
#209=VERTEX_POINT('',#208) ;
#216=VERTEX_POINT('',#215) ;
#223=VERTEX_POINT('',#222) ;
#279=VERTEX_POINT('',#278) ;
#281=VERTEX_POINT('',#280) ;
#304=VERTEX_POINT('',#303) ;
#311=VERTEX_POINT('',#310) ;
#349=VERTEX_POINT('',#348) ;
#351=VERTEX_POINT('',#350) ;
#378=VERTEX_POINT('',#377) ;
#385=VERTEX_POINT('',#384) ;
#423=VERTEX_POINT('',#422) ;
#425=VERTEX_POINT('',#424) ;
#480=VERTEX_POINT('',#479) ;
#482=VERTEX_POINT('',#481) ;
#27=SURFACE_STYLE_TRANSPARENT(0.254901960784) ;
#242=SURFACE_STYLE_TRANSPARENT(0.254901960784) ;
#547=ADVANCED_BREP_SHAPE_REPRESENTATION('NONE',(#21),#16) ;
#72=ADVANCED_FACE('CALE_MC_W639',(#71),#37,.F.) ;
#89=ADVANCED_FACE('CALE_MC_W639',(#88),#37,.F.) ;
#153=ADVANCED_FACE('CALE_MC_W639',(#112,#116,#134,#152),#94,.T.) ;
#184=ADVANCED_FACE('CALE_MC_W639',(#183),#158,.T.) ;
#196=ADVANCED_FACE('CALE_MC_W639',(#195),#158,.T.) ;
#236=ADVANCED_FACE('CALE_MC_W639',(#235),#201,.F.) ;
#263=ADVANCED_FACE('CALE_MC_W639',(#262),#201,.F.) ;
#292=ADVANCED_FACE('CALE_MC_W639',(#273,#291),#269,.F.) ;
#324=ADVANCED_FACE('CALE_MC_W639',(#323),#298,.F.) ;
#337=ADVANCED_FACE('CALE_MC_W639',(#336),#298,.F.) ;
#366=ADVANCED_FACE('CALE_MC_W639',(#361,#365),#343,.T.) ;
#398=ADVANCED_FACE('CALE_MC_W639',(#397),#372,.F.) ;
#411=ADVANCED_FACE('CALE_MC_W639',(#410),#372,.F.) ;
#440=ADVANCED_FACE('CALE_MC_W639',(#435,#439),#417,.T.) ;
#462=ADVANCED_FACE('CALE_MC_W639',(#461),#445,.T.) ;
#469=ADVANCED_FACE('CALE_MC_W639',(#468),#445,.T.) ;
#500=ADVANCED_FACE('CALE_MC_W639',(#499),#474,.F.) ;
#512=ADVANCED_FACE('CALE_MC_W639',(#511),#474,.F.) ;
#534=ADVANCED_FACE('CALE_MC_W639',(#521,#525,#529,#533),#517,.F.) ;
#4=APPLICATION_PROTOCOL_DEFINITION('international standard','ap242_managed_model_based_3d_engineering',2014,#1) ;
#536=GEOMETRIC_ITEM_SPECIFIC_USAGE('','Solid',#535,#19,#21) ;
#22=COLOUR_RGB('Colour',0.823529411765,0.823529411765,1.) ;
#237=COLOUR_RGB('Colour',1.,0.501960784314,0.501960784314) ;
#246=OVER_RIDING_STYLED_ITEM(' ',(#245),#236,#31) ;
#264=OVER_RIDING_STYLED_ITEM(' ',(#245),#263,#31) ;
#293=OVER_RIDING_STYLED_ITEM(' ',(#245),#292,#31) ;
#325=OVER_RIDING_STYLED_ITEM(' ',(#245),#324,#31) ;
#338=OVER_RIDING_STYLED_ITEM(' ',(#245),#337,#31) ;
#367=OVER_RIDING_STYLED_ITEM(' ',(#245),#366,#31) ;
#399=OVER_RIDING_STYLED_ITEM(' ',(#245),#398,#31) ;
#412=OVER_RIDING_STYLED_ITEM(' ',(#245),#411,#31) ;
#71=FACE_OUTER_BOUND('',#66,.T.) ;
#88=FACE_OUTER_BOUND('',#83,.T.) ;
#112=FACE_OUTER_BOUND('',#109,.T.) ;
#183=FACE_OUTER_BOUND('',#178,.T.) ;
#195=FACE_OUTER_BOUND('',#190,.T.) ;
#235=FACE_OUTER_BOUND('',#230,.T.) ;
#262=FACE_OUTER_BOUND('',#257,.T.) ;
#273=FACE_OUTER_BOUND('',#270,.T.) ;
#323=FACE_OUTER_BOUND('',#318,.T.) ;
#336=FACE_OUTER_BOUND('',#331,.T.) ;
#361=FACE_OUTER_BOUND('',#358,.T.) ;
#397=FACE_OUTER_BOUND('',#392,.T.) ;
#410=FACE_OUTER_BOUND('',#405,.T.) ;
#435=FACE_OUTER_BOUND('',#432,.T.) ;
#461=FACE_OUTER_BOUND('',#456,.T.) ;
#468=FACE_OUTER_BOUND('',#463,.T.) ;
#499=FACE_OUTER_BOUND('',#494,.T.) ;
#511=FACE_OUTER_BOUND('',#506,.T.) ;
#521=FACE_OUTER_BOUND('',#518,.T.) ;
#9=PRODUCT_CATEGORY_RELATIONSHIP(' ',' ',#7,#8) ;
#6=PRODUCT_DEFINITION_FORMATION_WITH_SPECIFIED_SOURCE('',' ',#5,.NOT_KNOWN.) ;
#20=SHAPE_DEFINITION_REPRESENTATION(#11,#19) ;
#26=SURFACE_STYLE_RENDERING_WITH_PROPERTIES(.NORMAL_SHADING.,#22,(#27)) ;
#241=SURFACE_STYLE_RENDERING_WITH_PROPERTIES(.NORMAL_SHADING.,#237,(#242)) ;
#12=(LENGTH_UNIT()NAMED_UNIT(*)SI_UNIT(.MILLI.,.METRE.)) ;
#13=(NAMED_UNIT(*)PLANE_ANGLE_UNIT()SI_UNIT($,.RADIAN.)) ;
#14=(NAMED_UNIT(*)SI_UNIT($,.STERADIAN.)SOLID_ANGLE_UNIT()) ;
#16=(GEOMETRIC_REPRESENTATION_CONTEXT(3)GLOBAL_UNCERTAINTY_ASSIGNED_CONTEXT((#15))GLOBAL_UNIT_ASSIGNED_CONTEXT((#12,#13,#14))REPRESENTATION_CONTEXT(' ',' ')) ;
ENDSEC;
END-ISO-10303-21;
