ISO-10303-21;
HEADER;
FILE_DESCRIPTION (( 'STEP AP203' ),
    '1' );
FILE_NAME ('ROV-USI-003A-RENFORT BROSSE.STEP',
    '2024-05-22T12:50:32',
    ( '' ),
    ( '' ),
    'SwSTEP 2.0',
    'SolidWorks 2016',
    '' );
FILE_SCHEMA (( 'CONFIG_CONTROL_DESIGN' ));
ENDSEC;

DATA;
#1 = EDGE_CURVE ( 'NONE', #54, #240, #307, .T. ) ;
#2 = PERSON_AND_ORGANIZATION ( #211, #95 ) ;
#3 = CIRCLE ( 'NONE', #32, 4.000000000000000000 ) ;
#4 = ADVANCED_FACE ( 'NONE', ( #58 ), #148, .T. ) ;
#5 = CIRCLE ( 'NONE', #183, 1.649999999999989900 ) ;
#6 = ORIENTED_EDGE ( 'NONE', *, *, #332, .T. ) ;
#7 = EDGE_LOOP ( 'NONE', ( #291, #198, #6 ) ) ;
#8 = DIRECTION ( 'NONE',  ( 0.0000000000000000000, 0.0000000000000000000, 1.000000000000000000 ) ) ;
#9 = AXIS2_PLACEMENT_3D ( 'NONE', #238, #265, #334 ) ;
#10 = PERSON_AND_ORGANIZATION ( #211, #95 ) ;
#11 = VERTEX_POINT ( 'NONE', #219 ) ;
#12 = CARTESIAN_POINT ( 'NONE',  ( -82.00000000000000000, 2.020667218593120400E-016, -1.649999999999989700 ) ) ;
#13 = DIRECTION ( 'NONE',  ( 0.0000000000000000000, 0.0000000000000000000, 1.000000000000000000 ) ) ;
#14 = DIRECTION ( 'NONE',  ( 1.000000000000000000, -0.0000000000000000000, -0.0000000000000000000 ) ) ;
#15 = VECTOR ( 'NONE', #206, 1000.000000000000000 ) ;
#16 = AXIS2_PLACEMENT_3D ( 'NONE', #48, #292, #105 ) ;
#17 = ORIENTED_EDGE ( 'NONE', *, *, #208, .F. ) ;
#18 = CARTESIAN_POINT ( 'NONE',  ( 82.00000000000000000, 4.898587196589412800E-016, -4.000000000000000000 ) ) ;
#19 = DIRECTION ( 'NONE',  ( -1.000000000000000000, -0.0000000000000000000, -0.0000000000000000000 ) ) ;
#20 = DIRECTION ( 'NONE',  ( -1.000000000000000000, -0.0000000000000000000, -0.0000000000000000000 ) ) ;
#21 = APPROVAL_DATE_TIME ( #85, #380 ) ;
#22 = EDGE_LOOP ( 'NONE', ( #228, #115, #283, #321 ) ) ;
#23 = DIRECTION ( 'NONE',  ( 0.0000000000000000000, 0.0000000000000000000, -1.000000000000000000 ) ) ;
#24 = AXIS2_PLACEMENT_3D ( 'NONE', #159, #151, #13 ) ;
#25 = EDGE_LOOP ( 'NONE', ( #158, #51, #187 ) ) ;
#26 = EDGE_LOOP ( 'NONE', ( #226, #313, #377, #357 ) ) ;
#27 = CARTESIAN_POINT ( 'NONE',  ( 70.50000000000000000, 0.0000000000000000000, 0.0000000000000000000 ) ) ;
#28 = DIRECTION ( 'NONE',  ( 1.000000000000000000, 0.0000000000000000000, 0.0000000000000000000 ) ) ;
#29 = COORDINATED_UNIVERSAL_TIME_OFFSET ( 1, 0, .AHEAD. ) ;
#30 = PERSON_AND_ORGANIZATION ( #211, #95 ) ;
#31 = EDGE_LOOP ( 'NONE', ( #382, #331 ) ) ;
#32 = AXIS2_PLACEMENT_3D ( 'NONE', #333, #359, #117 ) ;
#33 = FACE_OUTER_BOUND ( 'NONE', #87, .T. ) ;
#34 = AXIS2_PLACEMENT_3D ( 'NONE', #157, #364, #366 ) ;
#35 = EDGE_CURVE ( 'NONE', #275, #11, #44, .T. ) ;
#36 = PERSON_AND_ORGANIZATION ( #211, #95 ) ;
#37 = DIRECTION ( 'NONE',  ( 0.5150380749100558200, 1.049727191138617500E-016, 0.8571673007021113300 ) ) ;
#38 = DIRECTION ( 'NONE',  ( 0.0000000000000000000, 0.0000000000000000000, 1.000000000000000000 ) ) ;
#39 = ORIENTED_EDGE ( 'NONE', *, *, #1, .F. ) ;
#40 = CC_DESIGN_DATE_AND_TIME_ASSIGNMENT ( #129, #167, ( #300 ) ) ;
#41 = ORIENTED_EDGE ( 'NONE', *, *, #91, .T. ) ;
#42 = DIRECTION ( 'NONE',  ( 0.0000000000000000000, 0.0000000000000000000, -1.000000000000000000 ) ) ;
#43 = AXIS2_PLACEMENT_3D ( 'NONE', #272, #244, #185 ) ;
#44 = LINE ( 'NONE', #18, #362 ) ;
#45 = ORIENTED_EDGE ( 'NONE', *, *, #216, .F. ) ;
#46 = CARTESIAN_POINT ( 'NONE',  ( -82.00000000000000000, 0.0000000000000000000, 1.649999999999989900 ) ) ;
#47 = ADVANCED_FACE ( 'NONE', ( #347, #223 ), #340, .F. ) ;
#48 = CARTESIAN_POINT ( 'NONE',  ( 70.50000000000000000, 0.0000000000000000000, 0.0000000000000000000 ) ) ;
#49 = AXIS2_PLACEMENT_3D ( 'NONE', #27, #262, #349 ) ;
#50 = LOCAL_TIME ( 14, 50, 32.00000000000000000, #264 ) ;
#51 = ORIENTED_EDGE ( 'NONE', *, *, #267, .T. ) ;
#52 = PRODUCT ( 'ROV-USI-003A-RENFORT BROSSE', 'ROV-USI-003A-RENFORT BROSSE', '', ( #315 ) ) ;
#53 = FACE_BOUND ( 'NONE', #133, .T. ) ;
#54 = VERTEX_POINT ( 'NONE', #64 ) ;
#55 = AXIS2_PLACEMENT_3D ( 'NONE', #249, #19, #339 ) ;
#56 = CARTESIAN_POINT ( 'NONE',  ( -70.50000000000000000, 2.020667218593118500E-016, -1.649999999999988400 ) ) ;
#57 = LINE ( 'NONE', #220, #137 ) ;
#58 = FACE_OUTER_BOUND ( 'NONE', #156, .T. ) ;
#59 = DIRECTION ( 'NONE',  ( 1.000000000000000000, -0.0000000000000000000, -0.0000000000000000000 ) ) ;
#60 = CARTESIAN_POINT ( 'NONE',  ( 82.00000000000000000, 0.0000000000000000000, -1.649999999999989900 ) ) ;
#61 = COORDINATED_UNIVERSAL_TIME_OFFSET ( 1, 0, .AHEAD. ) ;
#62 = VECTOR ( 'NONE', #222, 999.9999999999998900 ) ;
#63 = DIRECTION ( 'NONE',  ( 0.0000000000000000000, 0.0000000000000000000, -1.000000000000000000 ) ) ;
#64 = CARTESIAN_POINT ( 'NONE',  ( 70.50000000000000000, 2.020667218593129800E-016, 1.649999999999997700 ) ) ;
#65 = APPROVAL_PERSON_ORGANIZATION ( #36, #125, #344 ) ;
#66 = EDGE_LOOP ( 'NONE', ( #45, #143 ) ) ;
#67 = DIRECTION ( 'NONE',  ( 1.000000000000000000, 0.0000000000000000000, 0.0000000000000000000 ) ) ;
#68 = DIRECTION ( 'NONE',  ( 0.0000000000000000000, 0.0000000000000000000, 1.000000000000000000 ) ) ;
#69 = APPROVAL_DATE_TIME ( #202, #116 ) ;
#70 = APPROVAL_PERSON_ORGANIZATION ( #30, #380, #128 ) ;
#71 = DIRECTION ( 'NONE',  ( 1.000000000000000000, -0.0000000000000000000, -0.0000000000000000000 ) ) ;
#72 = ORIENTED_EDGE ( 'NONE', *, *, #319, .T. ) ;
#73 = PERSON_AND_ORGANIZATION_ROLE ( 'classification_officer' ) ;
#74 = CARTESIAN_POINT ( 'NONE',  ( -70.50000000000000000, 0.0000000000000000000, 0.0000000000000000000 ) ) ;
#75 = MANIFOLD_SOLID_BREP ( 'Trou taraudé M42', #338 ) ;
#76 = ORIENTED_EDGE ( 'NONE', *, *, #373, .T. ) ;
#77 = CARTESIAN_POINT ( 'NONE',  ( 70.50000000000000000, 0.0000000000000000000, 0.0000000000000000000 ) ) ;
#78 = PRODUCT_DEFINITION_SHAPE ( 'NONE', 'NONE',  #300 ) ;
#79 = ORIENTED_EDGE ( 'NONE', *, *, #104, .T. ) ;
#80 = AXIS2_PLACEMENT_3D ( 'NONE', #295, #353, #112 ) ;
#81 = LINE ( 'NONE', #207, #268 ) ;
#82 = ORIENTED_EDGE ( 'NONE', *, *, #276, .F. ) ;
#83 = AXIS2_PLACEMENT_3D ( 'NONE', #190, #20, #38 ) ;
#84 = CALENDAR_DATE ( 2024, 22, 5 ) ;
#85 = DATE_AND_TIME ( #126, #178 ) ;
#86 = VERTEX_POINT ( 'NONE', #352 ) ;
#87 = EDGE_LOOP ( 'NONE', ( #233, #79, #218, #365 ) ) ;
#88 = DIRECTION ( 'NONE',  ( 1.000000000000000000, -0.0000000000000000000, -0.0000000000000000000 ) ) ;
#89 = AXIS2_PLACEMENT_3D ( 'NONE', #368, #225, #90 ) ;
#90 = DIRECTION ( 'NONE',  ( 0.0000000000000000000, 0.0000000000000000000, 1.000000000000000000 ) ) ;
#91 = EDGE_CURVE ( 'NONE', #251, #197, #81, .T. ) ;
#92 = CIRCLE ( 'NONE', #290, 1.649999999999988400 ) ;
#93 = EDGE_CURVE ( 'NONE', #135, #284, #318, .T. ) ;
#94 = CALENDAR_DATE ( 2024, 22, 5 ) ;
#95 = ORGANIZATION ( 'UNSPECIFIED', 'UNSPECIFIED', '' ) ;
#96 = ORIENTED_EDGE ( 'NONE', *, *, #373, .F. ) ;
#97 = DIRECTION ( 'NONE',  ( 1.000000000000000000, 0.0000000000000000000, 0.0000000000000000000 ) ) ;
#98 = DESIGN_CONTEXT ( 'detailed design', #199, 'design' ) ;
#99 = DIRECTION ( 'NONE',  ( 0.5150380749100558200, 0.0000000000000000000, -0.8571673007021113300 ) ) ;
#100 = CYLINDRICAL_SURFACE ( 'NONE', #345, 1.649999999999993900 ) ;
#101 = CARTESIAN_POINT ( 'NONE',  ( 0.0000000000000000000, 0.0000000000000000000, 0.0000000000000000000 ) ) ;
#102 = CARTESIAN_POINT ( 'NONE',  ( 82.00000000000000000, 4.898587196589412800E-016, -4.000000000000000000 ) ) ;
#103 = CARTESIAN_POINT ( 'NONE',  ( 82.00000000000000000, 0.0000000000000000000, 4.000000000000000000 ) ) ;
#104 = EDGE_CURVE ( 'NONE', #113, #135, #231, .T. ) ;
#105 = DIRECTION ( 'NONE',  ( 0.0000000000000000000, 0.0000000000000000000, -1.000000000000000000 ) ) ;
#106 = DIRECTION ( 'NONE',  ( 1.000000000000000000, -0.0000000000000000000, -0.0000000000000000000 ) ) ;
#107 = DIRECTION ( 'NONE',  ( 0.0000000000000000000, 0.0000000000000000000, -1.000000000000000000 ) ) ;
#108 = DIRECTION ( 'NONE',  ( -1.000000000000000000, -0.0000000000000000000, -0.0000000000000000000 ) ) ;
#109 = CYLINDRICAL_SURFACE ( 'NONE', #122, 1.649999999999993900 ) ;
#110 = ORIENTED_EDGE ( 'NONE', *, *, #200, .T. ) ;
#111 = EDGE_CURVE ( 'NONE', #348, #86, #5, .T. ) ;
#112 = DIRECTION ( 'NONE',  ( 0.0000000000000000000, 0.0000000000000000000, -1.000000000000000000 ) ) ;
#113 = VERTEX_POINT ( 'NONE', #56 ) ;
#114 = CARTESIAN_POINT ( 'NONE',  ( -82.00000000000000000, 0.0000000000000000000, 0.0000000000000000000 ) ) ;
#115 = ORIENTED_EDGE ( 'NONE', *, *, #332, .F. ) ;
#116 = APPROVAL ( #166, 'UNSPECIFIED' ) ;
#117 = DIRECTION ( 'NONE',  ( 0.0000000000000000000, 0.0000000000000000000, -1.000000000000000000 ) ) ;
#118 = CYLINDRICAL_SURFACE ( 'NONE', #89, 4.000000000000000000 ) ;
#119 = VECTOR ( 'NONE', #59, 1000.000000000000000 ) ;
#120 = VERTEX_POINT ( 'NONE', #324 ) ;
#121 = EDGE_LOOP ( 'NONE', ( #96, #224 ) ) ;
#122 = AXIS2_PLACEMENT_3D ( 'NONE', #257, #71, #23 ) ;
#123 = AXIS2_PLACEMENT_3D ( 'NONE', #243, #361, #329 ) ;
#124 = CARTESIAN_POINT ( 'NONE',  ( 69.50857997860453000, -3.469446951953614200E-015, 0.0000000000000000000 ) ) ;
#125 = APPROVAL ( #230, 'UNSPECIFIED' ) ;
#126 = CALENDAR_DATE ( 2024, 22, 5 ) ;
#127 = ORIENTED_EDGE ( 'NONE', *, *, #1, .T. ) ;
#128 = APPROVAL_ROLE ( '' ) ;
#129 = DATE_AND_TIME ( #84, #50 ) ;
#130 = AXIS2_PLACEMENT_3D ( 'NONE', #358, #350, #195 ) ;
#131 = CIRCLE ( 'NONE', #55, 1.649999999999988400 ) ;
#132 = CC_DESIGN_APPROVAL ( #125, ( #164 ) ) ;
#133 = EDGE_LOOP ( 'NONE', ( #215, #139 ) ) ;
#134 = APPROVAL_ROLE ( '' ) ;
#135 = VERTEX_POINT ( 'NONE', #12 ) ;
#136 =( NAMED_UNIT ( * ) SI_UNIT ( $, .STERADIAN. ) SOLID_ANGLE_UNIT ( ) );
#137 = VECTOR ( 'NONE', #37, 1000.000000000000000 ) ;
#138 = ADVANCED_FACE ( 'NONE', ( #33 ), #210, .F. ) ;
#139 = ORIENTED_EDGE ( 'NONE', *, *, #149, .F. ) ;
#140 = DATE_AND_TIME ( #94, #306 ) ;
#141 = LINE ( 'NONE', #304, #62 ) ;
#142 = EDGE_CURVE ( 'NONE', #342, #54, #57, .T. ) ;
#143 = ORIENTED_EDGE ( 'NONE', *, *, #93, .F. ) ;
#144 = ADVANCED_FACE ( 'NONE', ( #370 ), #303, .F. ) ;
#145 = DIRECTION ( 'NONE',  ( 1.000000000000000000, -0.0000000000000000000, -0.0000000000000000000 ) ) ;
#146 = CC_DESIGN_APPROVAL ( #380, ( #300 ) ) ;
#147 = LOCAL_TIME ( 14, 50, 32.00000000000000000, #153 ) ;
#148 = CYLINDRICAL_SURFACE ( 'NONE', #9, 4.000000000000000000 ) ;
#149 = EDGE_CURVE ( 'NONE', #86, #348, #336, .T. ) ;
#150 = AXIS2_PLACEMENT_3D ( 'NONE', #367, #28, #107 ) ;
#151 = DIRECTION ( 'NONE',  ( -1.000000000000000000, -0.0000000000000000000, -0.0000000000000000000 ) ) ;
#152 = CARTESIAN_POINT ( 'NONE',  ( 82.00000000000000000, 0.0000000000000000000, 0.0000000000000000000 ) ) ;
#153 = COORDINATED_UNIVERSAL_TIME_OFFSET ( 1, 0, .AHEAD. ) ;
#154 = PERSON_AND_ORGANIZATION ( #211, #95 ) ;
#155 = CARTESIAN_POINT ( 'NONE',  ( 82.00000000000000000, 0.0000000000000000000, 0.0000000000000000000 ) ) ;
#156 = EDGE_LOOP ( 'NONE', ( #371, #82, #41, #76 ) ) ;
#157 = CARTESIAN_POINT ( 'NONE',  ( -82.00000000000000000, 0.0000000000000000000, 0.0000000000000000000 ) ) ;
#158 = ORIENTED_EDGE ( 'NONE', *, *, #142, .F. ) ;
#159 = CARTESIAN_POINT ( 'NONE',  ( -82.00000000000000000, 0.0000000000000000000, 0.0000000000000000000 ) ) ;
#160 = ADVANCED_BREP_SHAPE_REPRESENTATION ( 'ROV-USI-003A-RENFORT BROSSE', ( #75, #241 ), #246 ) ;
#161 = EDGE_CURVE ( 'NONE', #120, #113, #330, .T. ) ;
#162 = CALENDAR_DATE ( 2024, 22, 5 ) ;
#163 = CONICAL_SURFACE ( 'NONE', #49, 1.649999999999997700, 1.029744258676652500 ) ;
#164 = SECURITY_CLASSIFICATION ( '', '', #280 ) ;
#165 = CARTESIAN_POINT ( 'NONE',  ( -70.50000000000000000, 0.0000000000000000000, 1.649999999999988400 ) ) ;
#166 = APPROVAL_STATUS ( 'not_yet_approved' ) ;
#167 = DATE_TIME_ROLE ( 'creation_date' ) ;
#168 = ADVANCED_FACE ( 'NONE', ( #250 ), #163, .F. ) ;
#169 =( LENGTH_UNIT ( ) NAMED_UNIT ( * ) SI_UNIT ( .MILLI., .METRE. ) );
#170 = DIRECTION ( 'NONE',  ( 0.0000000000000000000, 0.0000000000000000000, 1.000000000000000000 ) ) ;
#171 = EDGE_LOOP ( 'NONE', ( #363, #247, #72 ) ) ;
#172 = CC_DESIGN_PERSON_AND_ORGANIZATION_ASSIGNMENT ( #320, #229, ( #300 ) ) ;
#173 = CARTESIAN_POINT ( 'NONE',  ( 82.00000000000000000, 0.0000000000000000000, -1.649999999999993900 ) ) ;
#174 = ADVANCED_FACE ( 'NONE', ( #255 ), #189, .F. ) ;
#175 = CARTESIAN_POINT ( 'NONE',  ( 70.50000000000000000, 0.0000000000000000000, -1.649999999999997700 ) ) ;
#176 = DIRECTION ( 'NONE',  ( 0.0000000000000000000, 0.0000000000000000000, -1.000000000000000000 ) ) ;
#177 = CARTESIAN_POINT ( 'NONE',  ( -70.50000000000000000, 0.0000000000000000000, 0.0000000000000000000 ) ) ;
#178 = LOCAL_TIME ( 14, 50, 32.00000000000000000, #375 ) ;
#179 = CC_DESIGN_SECURITY_CLASSIFICATION ( #164, ( #213 ) ) ;
#180 = DIRECTION ( 'NONE',  ( -1.000000000000000000, -0.0000000000000000000, -0.0000000000000000000 ) ) ;
#181 = CARTESIAN_POINT ( 'NONE',  ( 82.00000000000000000, 0.0000000000000000000, 0.0000000000000000000 ) ) ;
#182 = FACE_OUTER_BOUND ( 'NONE', #31, .T. ) ;
#183 = AXIS2_PLACEMENT_3D ( 'NONE', #152, #88, #63 ) ;
#184 = DIRECTION ( 'NONE',  ( 0.0000000000000000000, 0.0000000000000000000, -1.000000000000000000 ) ) ;
#185 = DIRECTION ( 'NONE',  ( 0.0000000000000000000, 0.0000000000000000000, -1.000000000000000000 ) ) ;
#186 = VECTOR ( 'NONE', #99, 1000.000000000000000 ) ;
#187 = ORIENTED_EDGE ( 'NONE', *, *, #237, .T. ) ;
#188 = AXIS2_PLACEMENT_3D ( 'NONE', #77, #106, #176 ) ;
#189 = CONICAL_SURFACE ( 'NONE', #271, 1.649999999999988400, 1.029744258676650100 ) ;
#190 = CARTESIAN_POINT ( 'NONE',  ( -82.00000000000000000, 0.0000000000000000000, 0.0000000000000000000 ) ) ;
#191 = LINE ( 'NONE', #270, #242 ) ;
#192 = CARTESIAN_POINT ( 'NONE',  ( -70.50000000000000000, 0.0000000000000000000, 0.0000000000000000000 ) ) ;
#193 = AXIS2_PLACEMENT_3D ( 'NONE', #235, #260, #288 ) ;
#194 = CC_DESIGN_DATE_AND_TIME_ASSIGNMENT ( #140, #285, ( #164 ) ) ;
#195 = DIRECTION ( 'NONE',  ( 0.0000000000000000000, 0.0000000000000000000, -1.000000000000000000 ) ) ;
#196 = CIRCLE ( 'NONE', #83, 1.649999999999989900 ) ;
#197 = VERTEX_POINT ( 'NONE', #356 ) ;
#198 = ORIENTED_EDGE ( 'NONE', *, *, #227, .T. ) ;
#199 = APPLICATION_CONTEXT ( 'configuration controlled 3d designs of mechanical parts and assemblies' ) ;
#200 = EDGE_CURVE ( 'NONE', #240, #348, #298, .T. ) ;
#201 = APPLICATION_CONTEXT ( 'configuration controlled 3d designs of mechanical parts and assemblies' ) ;
#202 = DATE_AND_TIME ( #162, #147 ) ;
#203 = CIRCLE ( 'NONE', #130, 4.000000000000000000 ) ;
#204 = ORIENTED_EDGE ( 'NONE', *, *, #149, .T. ) ;
#205 = CC_DESIGN_PERSON_AND_ORGANIZATION_ASSIGNMENT ( #360, #73, ( #164 ) ) ;
#206 = DIRECTION ( 'NONE',  ( -1.000000000000000000, -0.0000000000000000000, -0.0000000000000000000 ) ) ;
#207 = CARTESIAN_POINT ( 'NONE',  ( 82.00000000000000000, 0.0000000000000000000, 4.000000000000000000 ) ) ;
#208 = EDGE_CURVE ( 'NONE', #54, #86, #191, .T. ) ;
#209 = FACE_OUTER_BOUND ( 'NONE', #26, .T. ) ;
#210 = CYLINDRICAL_SURFACE ( 'NONE', #34, 1.649999999999989300 ) ;
#211 = PERSON ( 'UNSPECIFIED', 'UNSPECIFIED', 'UNSPECIFIED', ('UNSPECIFIED'), ('UNSPECIFIED'), ('UNSPECIFIED') ) ;
#212 = DIRECTION ( 'NONE',  ( 0.0000000000000000000, 0.0000000000000000000, 1.000000000000000000 ) ) ;
#213 = PRODUCT_DEFINITION_FORMATION_WITH_SPECIFIED_SOURCE ( 'ANY', '', #52, .NOT_KNOWN. ) ;
#214 = CONICAL_SURFACE ( 'NONE', #43, 1.649999999999997700, 1.029744258676652500 ) ;
#215 = ORIENTED_EDGE ( 'NONE', *, *, #111, .F. ) ;
#216 = EDGE_CURVE ( 'NONE', #284, #135, #196, .T. ) ;
#217 = ORIENTED_EDGE ( 'NONE', *, *, #200, .F. ) ;
#218 = ORIENTED_EDGE ( 'NONE', *, *, #93, .T. ) ;
#219 = CARTESIAN_POINT ( 'NONE',  ( -82.00000000000000000, 4.898587196589412800E-016, -4.000000000000000000 ) ) ;
#220 = CARTESIAN_POINT ( 'NONE',  ( 70.50000000000000000, 2.020667218593129800E-016, 1.649999999999997700 ) ) ;
#221 = DIRECTION ( 'NONE',  ( 0.0000000000000000000, 0.0000000000000000000, 1.000000000000000000 ) ) ;
#222 = DIRECTION ( 'NONE',  ( -0.5150380749100580400, 0.0000000000000000000, 0.8571673007021101100 ) ) ;
#223 = FACE_OUTER_BOUND ( 'NONE', #121, .T. ) ;
#224 = ORIENTED_EDGE ( 'NONE', *, *, #301, .F. ) ;
#225 = DIRECTION ( 'NONE',  ( -1.000000000000000000, -0.0000000000000000000, -0.0000000000000000000 ) ) ;
#226 = ORIENTED_EDGE ( 'NONE', *, *, #317, .F. ) ;
#227 = EDGE_CURVE ( 'NONE', #120, #279, #141, .T. ) ;
#228 = ORIENTED_EDGE ( 'NONE', *, *, #104, .F. ) ;
#229 = PERSON_AND_ORGANIZATION_ROLE ( 'creator' ) ;
#230 = APPROVAL_STATUS ( 'not_yet_approved' ) ;
#231 = LINE ( 'NONE', #263, #310 ) ;
#232 = DIRECTION ( 'NONE',  ( -1.000000000000000000, -0.0000000000000000000, -0.0000000000000000000 ) ) ;
#233 = ORIENTED_EDGE ( 'NONE', *, *, #319, .F. ) ;
#234 = CC_DESIGN_APPROVAL ( #116, ( #213 ) ) ;
#235 = CARTESIAN_POINT ( 'NONE',  ( 82.00000000000000000, 0.0000000000000000000, 0.0000000000000000000 ) ) ;
#236 = ADVANCED_FACE ( 'NONE', ( #53, #182 ), #305, .T. ) ;
#237 = EDGE_CURVE ( 'NONE', #240, #54, #261, .T. ) ;
#238 = CARTESIAN_POINT ( 'NONE',  ( 82.00000000000000000, 0.0000000000000000000, 0.0000000000000000000 ) ) ;
#239 = FACE_OUTER_BOUND ( 'NONE', #22, .T. ) ;
#240 = VERTEX_POINT ( 'NONE', #378 ) ;
#241 = AXIS2_PLACEMENT_3D ( 'NONE', #101, #68, #97 ) ;
#242 = VECTOR ( 'NONE', #14, 1000.000000000000000 ) ;
#243 = CARTESIAN_POINT ( 'NONE',  ( -82.00000000000000000, 0.0000000000000000000, 0.0000000000000000000 ) ) ;
#244 = DIRECTION ( 'NONE',  ( 1.000000000000000000, -0.0000000000000000000, -0.0000000000000000000 ) ) ;
#245 = DIRECTION ( 'NONE',  ( -1.000000000000000000, -0.0000000000000000000, -0.0000000000000000000 ) ) ;
#246 =( GEOMETRIC_REPRESENTATION_CONTEXT ( 3 ) GLOBAL_UNCERTAINTY_ASSIGNED_CONTEXT ( ( #341 ) ) GLOBAL_UNIT_ASSIGNED_CONTEXT ( ( #169, #381, #136 ) ) REPRESENTATION_CONTEXT ( 'NONE', 'WORKASPACE' ) );
#247 = ORIENTED_EDGE ( 'NONE', *, *, #161, .T. ) ;
#248 = ORIENTED_EDGE ( 'NONE', *, *, #208, .T. ) ;
#249 = CARTESIAN_POINT ( 'NONE',  ( -70.50000000000000000, 0.0000000000000000000, 0.0000000000000000000 ) ) ;
#250 = FACE_OUTER_BOUND ( 'NONE', #256, .T. ) ;
#251 = VERTEX_POINT ( 'NONE', #103 ) ;
#252 = CC_DESIGN_PERSON_AND_ORGANIZATION_ASSIGNMENT ( #2, #343, ( #213 ) ) ;
#253 = LOCAL_TIME ( 14, 50, 32.00000000000000000, #61 ) ;
#254 = SHAPE_DEFINITION_REPRESENTATION ( #78, #160 ) ;
#255 = FACE_OUTER_BOUND ( 'NONE', #171, .T. ) ;
#256 = EDGE_LOOP ( 'NONE', ( #312, #299, #127 ) ) ;
#257 = CARTESIAN_POINT ( 'NONE',  ( 82.00000000000000000, 0.0000000000000000000, 0.0000000000000000000 ) ) ;
#258 = APPLICATION_PROTOCOL_DEFINITION ( 'international standard', 'config_control_design', 1994, #201 ) ;
#259 = APPROVAL_STATUS ( 'not_yet_approved' ) ;
#260 = DIRECTION ( 'NONE',  ( 1.000000000000000000, -0.0000000000000000000, -0.0000000000000000000 ) ) ;
#261 = CIRCLE ( 'NONE', #16, 1.649999999999997700 ) ;
#262 = DIRECTION ( 'NONE',  ( 1.000000000000000000, -0.0000000000000000000, -0.0000000000000000000 ) ) ;
#263 = CARTESIAN_POINT ( 'NONE',  ( -82.00000000000000000, 2.020667218593119400E-016, -1.649999999999989300 ) ) ;
#264 = COORDINATED_UNIVERSAL_TIME_OFFSET ( 1, 0, .AHEAD. ) ;
#265 = DIRECTION ( 'NONE',  ( -1.000000000000000000, -0.0000000000000000000, -0.0000000000000000000 ) ) ;
#266 = CARTESIAN_POINT ( 'NONE',  ( -82.00000000000000000, 0.0000000000000000000, 1.649999999999989300 ) ) ;
#267 = EDGE_CURVE ( 'NONE', #342, #240, #289, .T. ) ;
#268 = VECTOR ( 'NONE', #232, 1000.000000000000000 ) ;
#269 = EDGE_LOOP ( 'NONE', ( #17, #308, #110, #327 ) ) ;
#270 = CARTESIAN_POINT ( 'NONE',  ( 82.00000000000000000, 2.020667218593125400E-016, 1.649999999999993900 ) ) ;
#271 = AXIS2_PLACEMENT_3D ( 'NONE', #177, #108, #8 ) ;
#272 = CARTESIAN_POINT ( 'NONE',  ( 70.50000000000000000, 0.0000000000000000000, 0.0000000000000000000 ) ) ;
#273 = CC_DESIGN_PERSON_AND_ORGANIZATION_ASSIGNMENT ( #154, #314, ( #52 ) ) ;
#274 = EDGE_LOOP ( 'NONE', ( #39, #248, #204, #217 ) ) ;
#275 = VERTEX_POINT ( 'NONE', #102 ) ;
#276 = EDGE_CURVE ( 'NONE', #251, #275, #351, .T. ) ;
#277 = CARTESIAN_POINT ( 'NONE',  ( -70.50000000000000000, 2.020667218593118500E-016, -1.649999999999988400 ) ) ;
#278 = CIRCLE ( 'NONE', #123, 4.000000000000000000 ) ;
#279 = VERTEX_POINT ( 'NONE', #165 ) ;
#280 = SECURITY_CLASSIFICATION_LEVEL ( 'unclassified' ) ;
#281 = FACE_OUTER_BOUND ( 'NONE', #274, .T. ) ;
#282 = AXIS2_PLACEMENT_3D ( 'NONE', #114, #180, #212 ) ;
#283 = ORIENTED_EDGE ( 'NONE', *, *, #294, .T. ) ;
#284 = VERTEX_POINT ( 'NONE', #46 ) ;
#285 = DATE_TIME_ROLE ( 'classification_date' ) ;
#286 = ADVANCED_FACE ( 'NONE', ( #281 ), #100, .F. ) ;
#287 = DIRECTION ( 'NONE',  ( -1.000000000000000000, -0.0000000000000000000, -0.0000000000000000000 ) ) ;
#288 = DIRECTION ( 'NONE',  ( 0.0000000000000000000, 0.0000000000000000000, -1.000000000000000000 ) ) ;
#289 = LINE ( 'NONE', #175, #186 ) ;
#290 = AXIS2_PLACEMENT_3D ( 'NONE', #74, #287, #170 ) ;
#291 = ORIENTED_EDGE ( 'NONE', *, *, #161, .F. ) ;
#292 = DIRECTION ( 'NONE',  ( 1.000000000000000000, -0.0000000000000000000, -0.0000000000000000000 ) ) ;
#293 = PRODUCT_RELATED_PRODUCT_CATEGORY ( 'detail', '', ( #52 ) ) ;
#294 = EDGE_CURVE ( 'NONE', #279, #284, #297, .T. ) ;
#295 = CARTESIAN_POINT ( 'NONE',  ( 82.00000000000000000, 0.0000000000000000000, 0.0000000000000000000 ) ) ;
#296 = DATE_AND_TIME ( #374, #253 ) ;
#297 = LINE ( 'NONE', #266, #15 ) ;
#298 = LINE ( 'NONE', #173, #119 ) ;
#299 = ORIENTED_EDGE ( 'NONE', *, *, #142, .T. ) ;
#300 = PRODUCT_DEFINITION ( 'UNKNOWN', '', #213, #98 ) ;
#301 = EDGE_CURVE ( 'NONE', #11, #197, #278, .T. ) ;
#302 = PERSON_AND_ORGANIZATION ( #211, #95 ) ;
#303 = CONICAL_SURFACE ( 'NONE', #355, 1.649999999999988400, 1.029744258676650100 ) ;
#304 = CARTESIAN_POINT ( 'NONE',  ( -70.50000000000000000, 0.0000000000000000000, 1.649999999999988400 ) ) ;
#305 = PLANE ( 'NONE',  #311 ) ;
#306 = LOCAL_TIME ( 14, 50, 32.00000000000000000, #29 ) ;
#307 = CIRCLE ( 'NONE', #188, 1.649999999999997700 ) ;
#308 = ORIENTED_EDGE ( 'NONE', *, *, #237, .F. ) ;
#309 = APPROVAL_DATE_TIME ( #296, #125 ) ;
#310 = VECTOR ( 'NONE', #322, 1000.000000000000000 ) ;
#311 = AXIS2_PLACEMENT_3D ( 'NONE', #155, #67, #42 ) ;
#312 = ORIENTED_EDGE ( 'NONE', *, *, #267, .F. ) ;
#313 = ORIENTED_EDGE ( 'NONE', *, *, #35, .T. ) ;
#314 = PERSON_AND_ORGANIZATION_ROLE ( 'design_owner' ) ;
#315 = MECHANICAL_CONTEXT ( 'NONE', #201, 'mechanical' ) ;
#316 = ADVANCED_FACE ( 'NONE', ( #239 ), #346, .F. ) ;
#317 = EDGE_CURVE ( 'NONE', #275, #251, #3, .T. ) ;
#318 = CIRCLE ( 'NONE', #282, 1.649999999999989900 ) ;
#319 = EDGE_CURVE ( 'NONE', #113, #279, #131, .T. ) ;
#320 = PERSON_AND_ORGANIZATION ( #211, #95 ) ;
#321 = ORIENTED_EDGE ( 'NONE', *, *, #216, .T. ) ;
#322 = DIRECTION ( 'NONE',  ( -1.000000000000000000, -0.0000000000000000000, -0.0000000000000000000 ) ) ;
#323 = ADVANCED_FACE ( 'NONE', ( #335 ), #214, .F. ) ;
#324 = CARTESIAN_POINT ( 'NONE',  ( -69.50857997860453000, -3.059515509201426700E-015, 0.0000000000000000000 ) ) ;
#325 = FACE_OUTER_BOUND ( 'NONE', #269, .T. ) ;
#326 = VECTOR ( 'NONE', #376, 999.9999999999998900 ) ;
#327 = ORIENTED_EDGE ( 'NONE', *, *, #111, .T. ) ;
#328 = CC_DESIGN_PERSON_AND_ORGANIZATION_ASSIGNMENT ( #10, #379, ( #213 ) ) ;
#329 = DIRECTION ( 'NONE',  ( 0.0000000000000000000, 0.0000000000000000000, -1.000000000000000000 ) ) ;
#330 = LINE ( 'NONE', #277, #326 ) ;
#331 = ORIENTED_EDGE ( 'NONE', *, *, #317, .T. ) ;
#332 = EDGE_CURVE ( 'NONE', #279, #113, #92, .T. ) ;
#333 = CARTESIAN_POINT ( 'NONE',  ( 82.00000000000000000, 0.0000000000000000000, 0.0000000000000000000 ) ) ;
#334 = DIRECTION ( 'NONE',  ( 0.0000000000000000000, 0.0000000000000000000, 1.000000000000000000 ) ) ;
#335 = FACE_OUTER_BOUND ( 'NONE', #25, .T. ) ;
#336 = CIRCLE ( 'NONE', #193, 1.649999999999989900 ) ;
#337 = DIRECTION ( 'NONE',  ( -1.000000000000000000, -0.0000000000000000000, -0.0000000000000000000 ) ) ;
#338 = CLOSED_SHELL ( 'NONE', ( #138, #174, #286, #168, #354, #4, #236, #47, #323, #383, #144, #316 ) ) ;
#339 = DIRECTION ( 'NONE',  ( 0.0000000000000000000, 0.0000000000000000000, 1.000000000000000000 ) ) ;
#340 = PLANE ( 'NONE',  #150 ) ;
#341 = UNCERTAINTY_MEASURE_WITH_UNIT (LENGTH_MEASURE( 1.000000000000000100E-005 ), #169, 'distance_accuracy_value', 'NONE');
#342 = VERTEX_POINT ( 'NONE', #124 ) ;
#343 = PERSON_AND_ORGANIZATION_ROLE ( 'creator' ) ;
#344 = APPROVAL_ROLE ( '' ) ;
#345 = AXIS2_PLACEMENT_3D ( 'NONE', #181, #145, #184 ) ;
#346 = CYLINDRICAL_SURFACE ( 'NONE', #24, 1.649999999999989300 ) ;
#347 = FACE_BOUND ( 'NONE', #66, .T. ) ;
#348 = VERTEX_POINT ( 'NONE', #60 ) ;
#349 = DIRECTION ( 'NONE',  ( 0.0000000000000000000, 0.0000000000000000000, -1.000000000000000000 ) ) ;
#350 = DIRECTION ( 'NONE',  ( 1.000000000000000000, 0.0000000000000000000, 0.0000000000000000000 ) ) ;
#351 = CIRCLE ( 'NONE', #80, 4.000000000000000000 ) ;
#352 = CARTESIAN_POINT ( 'NONE',  ( 82.00000000000000000, 2.020667218593122900E-016, 1.649999999999989900 ) ) ;
#353 = DIRECTION ( 'NONE',  ( 1.000000000000000000, 0.0000000000000000000, 0.0000000000000000000 ) ) ;
#354 = ADVANCED_FACE ( 'NONE', ( #209 ), #118, .T. ) ;
#355 = AXIS2_PLACEMENT_3D ( 'NONE', #192, #245, #221 ) ;
#356 = CARTESIAN_POINT ( 'NONE',  ( -82.00000000000000000, 0.0000000000000000000, 4.000000000000000000 ) ) ;
#357 = ORIENTED_EDGE ( 'NONE', *, *, #91, .F. ) ;
#358 = CARTESIAN_POINT ( 'NONE',  ( -82.00000000000000000, 0.0000000000000000000, 0.0000000000000000000 ) ) ;
#359 = DIRECTION ( 'NONE',  ( 1.000000000000000000, 0.0000000000000000000, 0.0000000000000000000 ) ) ;
#360 = PERSON_AND_ORGANIZATION ( #211, #95 ) ;
#361 = DIRECTION ( 'NONE',  ( 1.000000000000000000, 0.0000000000000000000, 0.0000000000000000000 ) ) ;
#362 = VECTOR ( 'NONE', #337, 1000.000000000000000 ) ;
#363 = ORIENTED_EDGE ( 'NONE', *, *, #227, .F. ) ;
#364 = DIRECTION ( 'NONE',  ( -1.000000000000000000, -0.0000000000000000000, -0.0000000000000000000 ) ) ;
#365 = ORIENTED_EDGE ( 'NONE', *, *, #294, .F. ) ;
#366 = DIRECTION ( 'NONE',  ( 0.0000000000000000000, 0.0000000000000000000, 1.000000000000000000 ) ) ;
#367 = CARTESIAN_POINT ( 'NONE',  ( -82.00000000000000000, 0.0000000000000000000, 0.0000000000000000000 ) ) ;
#368 = CARTESIAN_POINT ( 'NONE',  ( 82.00000000000000000, 0.0000000000000000000, 0.0000000000000000000 ) ) ;
#369 = APPROVAL_PERSON_ORGANIZATION ( #302, #116, #134 ) ;
#370 = FACE_OUTER_BOUND ( 'NONE', #7, .T. ) ;
#371 = ORIENTED_EDGE ( 'NONE', *, *, #35, .F. ) ;
#372 = APPLICATION_PROTOCOL_DEFINITION ( 'international standard', 'config_control_design', 1994, #199 ) ;
#373 = EDGE_CURVE ( 'NONE', #197, #11, #203, .T. ) ;
#374 = CALENDAR_DATE ( 2024, 22, 5 ) ;
#375 = COORDINATED_UNIVERSAL_TIME_OFFSET ( 1, 0, .AHEAD. ) ;
#376 = DIRECTION ( 'NONE',  ( -0.5150380749100580400, 1.049727191138616000E-016, -0.8571673007021101100 ) ) ;
#377 = ORIENTED_EDGE ( 'NONE', *, *, #301, .T. ) ;
#378 = CARTESIAN_POINT ( 'NONE',  ( 70.50000000000000000, 0.0000000000000000000, -1.649999999999997700 ) ) ;
#379 = PERSON_AND_ORGANIZATION_ROLE ( 'design_supplier' ) ;
#380 = APPROVAL ( #259, 'UNSPECIFIED' ) ;
#381 =( NAMED_UNIT ( * ) PLANE_ANGLE_UNIT ( ) SI_UNIT ( $, .RADIAN. ) );
#382 = ORIENTED_EDGE ( 'NONE', *, *, #276, .T. ) ;
#383 = ADVANCED_FACE ( 'NONE', ( #325 ), #109, .F. ) ;
ENDSEC;
END-ISO-10303-21;
