ISO-10303-21;
HEADER;
FILE_DESCRIPTION(('STEP AP214'),'1');
FILE_NAME('axe bielle simple.stp','2024-03-22T14:32:33',(' '),(' '),'Spatial InterOp 3D',' ',' ');
FILE_SCHEMA(('AUTOMOTIVE_DESIGN { 1 0 10303 214 1 1 1 1 }'));
ENDSEC;
DATA;
#1=MECHANICAL_DESIGN_GEOMETRIC_PRESENTATION_REPRESENTATION(' ',(#58,#59,#60,#61,#62,#63,#64,#65,#66,#67,#68,#69,#70,#71,#72),#6);
#2=PRODUCT_DEFINITION_CONTEXT('',#73,'design');
#3=APPLICATION_PROTOCOL_DEFINITION('INTERNATIONAL STANDARD','automotive_design',1994,#73);
#4=PRODUCT_CATEGORY_RELATIONSHIP('NONE','NONE',#74,#75);
#5=SHAPE_DEFINITION_REPRESENTATION(#76,#77);
#6= (GEOMETRIC_REPRESENTATION_CONTEXT(3)GLOBAL_UNCERTAINTY_ASSIGNED_CONTEXT((#80))GLOBAL_UNIT_ASSIGNED_CONTEXT((#82,#83,#84))REPRESENTATION_CONTEXT('NONE','WORKSPACE'));
#7=PROPERTY_DEFINITION_REPRESENTATION(#86,#87);
#8=GENERAL_PROPERTY_ASSOCIATION('','',#88,#86);
#9=PROPERTY_DEFINITION_REPRESENTATION(#89,#90);
#10=GENERAL_PROPERTY_ASSOCIATION('','',#91,#89);
#11=PROPERTY_DEFINITION_REPRESENTATION(#92,#93);
#12=GENERAL_PROPERTY_ASSOCIATION('','',#94,#92);
#13=PROPERTY_DEFINITION_REPRESENTATION(#95,#96);
#14=GENERAL_PROPERTY_ASSOCIATION('','',#97,#95);
#15=PROPERTY_DEFINITION_REPRESENTATION(#98,#99);
#16=GENERAL_PROPERTY_ASSOCIATION('','',#100,#98);
#17=PROPERTY_DEFINITION_REPRESENTATION(#101,#102);
#18=GENERAL_PROPERTY_ASSOCIATION('','',#103,#101);
#19=PROPERTY_DEFINITION_REPRESENTATION(#104,#105);
#20=GENERAL_PROPERTY_ASSOCIATION('','',#106,#104);
#21=PROPERTY_DEFINITION_REPRESENTATION(#107,#108);
#22=GENERAL_PROPERTY_ASSOCIATION('','',#109,#107);
#23=PROPERTY_DEFINITION_REPRESENTATION(#110,#111);
#24=GENERAL_PROPERTY_ASSOCIATION('','',#112,#110);
#25=PROPERTY_DEFINITION_REPRESENTATION(#113,#114);
#26=GENERAL_PROPERTY_ASSOCIATION('','',#115,#113);
#27=PROPERTY_DEFINITION_REPRESENTATION(#116,#117);
#28=GENERAL_PROPERTY_ASSOCIATION('','',#118,#116);
#29=PROPERTY_DEFINITION_REPRESENTATION(#119,#120);
#30=GENERAL_PROPERTY_ASSOCIATION('','',#121,#119);
#31=PROPERTY_DEFINITION_REPRESENTATION(#122,#123);
#32=GENERAL_PROPERTY_ASSOCIATION('','',#124,#122);
#33=PROPERTY_DEFINITION_REPRESENTATION(#125,#126);
#34=GENERAL_PROPERTY_ASSOCIATION('','',#127,#125);
#35=PROPERTY_DEFINITION_REPRESENTATION(#128,#129);
#36=GENERAL_PROPERTY_ASSOCIATION('','',#130,#128);
#37=PROPERTY_DEFINITION_REPRESENTATION(#131,#132);
#38=GENERAL_PROPERTY_ASSOCIATION('','',#133,#131);
#39=PROPERTY_DEFINITION_REPRESENTATION(#134,#135);
#40=GENERAL_PROPERTY_ASSOCIATION('','',#136,#134);
#41=PROPERTY_DEFINITION_REPRESENTATION(#137,#138);
#42=GENERAL_PROPERTY_ASSOCIATION('','',#139,#137);
#43=PROPERTY_DEFINITION_REPRESENTATION(#140,#141);
#44=GENERAL_PROPERTY_ASSOCIATION('','',#142,#140);
#45=PROPERTY_DEFINITION_REPRESENTATION(#143,#144);
#46=GENERAL_PROPERTY_ASSOCIATION('','',#145,#143);
#47=PROPERTY_DEFINITION_REPRESENTATION(#146,#147);
#48=GENERAL_PROPERTY_ASSOCIATION('','',#148,#146);
#49=PROPERTY_DEFINITION_REPRESENTATION(#149,#150);
#50=GENERAL_PROPERTY_ASSOCIATION('','',#151,#149);
#51=PROPERTY_DEFINITION_REPRESENTATION(#152,#153);
#52=GENERAL_PROPERTY_ASSOCIATION('','',#154,#152);
#53=PROPERTY_DEFINITION_REPRESENTATION(#155,#156);
#54=GENERAL_PROPERTY_ASSOCIATION('','',#157,#155);
#58=STYLED_ITEM('',(#158),#159);
#59=STYLED_ITEM('',(#160),#161);
#60=STYLED_ITEM('',(#162),#163);
#61=STYLED_ITEM('',(#164),#165);
#62=STYLED_ITEM('',(#166),#167);
#63=STYLED_ITEM('',(#168),#169);
#64=STYLED_ITEM('',(#170),#171);
#65=STYLED_ITEM('',(#172),#173);
#66=STYLED_ITEM('',(#174),#175);
#67=STYLED_ITEM('',(#176),#177);
#68=STYLED_ITEM('',(#178),#179);
#69=STYLED_ITEM('',(#180),#181);
#70=STYLED_ITEM('',(#182),#183);
#71=STYLED_ITEM('',(#184),#185);
#72=STYLED_ITEM('',(#186),#187);
#73=APPLICATION_CONTEXT(' ');
#74=PRODUCT_CATEGORY('part','NONE');
#75=PRODUCT_RELATED_PRODUCT_CATEGORY('detail',' ',(#188));
#76=PRODUCT_DEFINITION_SHAPE('NONE','NONE',#189);
#77=ADVANCED_BREP_SHAPE_REPRESENTATION('axe bielle simple',(#187,#190),#6);
#80=UNCERTAINTY_MEASURE_WITH_UNIT(LENGTH_MEASURE(0.001),#82,'','');
#82= (CONVERSION_BASED_UNIT('MILLIMETRE',#193)LENGTH_UNIT()NAMED_UNIT(#196));
#83= (NAMED_UNIT(#198)PLANE_ANGLE_UNIT()SI_UNIT($,.RADIAN.));
#84= (NAMED_UNIT(#198)SOLID_ANGLE_UNIT()SI_UNIT($,.STERADIAN.));
#86=PROPERTY_DEFINITION('PdmObjectId','',#189);
#87=REPRESENTATION('',(#204),#6);
#88=GENERAL_PROPERTY('','PdmObjectId','');
#89=PROPERTY_DEFINITION('Type de Production','',#189);
#90=REPRESENTATION('',(#205),#6);
#91=GENERAL_PROPERTY('','Type de Production','');
#92=PROPERTY_DEFINITION('Nom','',#189);
#93=REPRESENTATION('',(#206),#6);
#94=GENERAL_PROPERTY('','Nom','');
#95=PROPERTY_DEFINITION('Type de brut','',#189);
#96=REPRESENTATION('',(#207),#6);
#97=GENERAL_PROPERTY('','Type de brut','');
#98=PROPERTY_DEFINITION('Dimensions du brut','',#189);
#99=REPRESENTATION('',(#208),#6);
#100=GENERAL_PROPERTY('','Dimensions du brut','');
#101=PROPERTY_DEFINITION('Nom du brut','',#189);
#102=REPRESENTATION('',(#209),#6);
#103=GENERAL_PROPERTY('','Nom du brut','');
#104=PROPERTY_DEFINITION('D\X2\00E9\X0\signation du brut','',#189);
#105=REPRESENTATION('',(#210),#6);
#106=GENERAL_PROPERTY('','D\X2\00E9\X0\signation du brut','');
#107=PROPERTY_DEFINITION('R\X2\00E9\X0\f\X2\00E9\X0\rence du brut','',#189);
#108=REPRESENTATION('',(#211),#6);
#109=GENERAL_PROPERTY('','R\X2\00E9\X0\f\X2\00E9\X0\rence du brut','');
#110=PROPERTY_DEFINITION('R\X2\00E9\X0\vision majeure du brut','',#189);
#111=REPRESENTATION('',(#212),#6);
#112=GENERAL_PROPERTY('','R\X2\00E9\X0\vision majeure du brut','');
#113=PROPERTY_DEFINITION('D\X2\00E9\X0\signation de la r\X2\00E8\X0\gle de mise \X2\00E0\X0\ plat','',#189);
#114=REPRESENTATION('',(#213),#6);
#115=GENERAL_PROPERTY('','D\X2\00E9\X0\signation de la r\X2\00E8\X0\gle de mise \X2\00E0\X0\ plat','');
#116=PROPERTY_DEFINITION('R\X2\00E9\X0\f\X2\00E9\X0\rence de la r\X2\00E8\X0\gle de mise \X2\00E0\X0\ plat','',#189);
#117=REPRESENTATION('',(#214),#6);
#118=GENERAL_PROPERTY('','R\X2\00E9\X0\f\X2\00E9\X0\rence de la r\X2\00E8\X0\gle de mise \X2\00E0\X0\ plat','');
#119=PROPERTY_DEFINITION('Outil de pliage','',#189);
#120=REPRESENTATION('',(#215),#6);
#121=GENERAL_PROPERTY('','Outil de pliage','');
#122=PROPERTY_DEFINITION('D\X2\00E9\X0\signation du mat\X2\00E9\X0\riau','',#189);
#123=REPRESENTATION('',(#216),#6);
#124=GENERAL_PROPERTY('','D\X2\00E9\X0\signation du mat\X2\00E9\X0\riau','');
#125=PROPERTY_DEFINITION('Nom du mat\X2\00E9\X0\riau','',#189);
#126=REPRESENTATION('',(#217),#6);
#127=GENERAL_PROPERTY('','Nom du mat\X2\00E9\X0\riau','');
#128=PROPERTY_DEFINITION('BrutFinal','',#189);
#129=REPRESENTATION('',(#218),#6);
#130=GENERAL_PROPERTY('','BrutFinal','');
#131=PROPERTY_DEFINITION('BrutCylindrique','',#189);
#132=REPRESENTATION('',(#219),#6);
#133=GENERAL_PROPERTY('','BrutCylindrique','');
#134=PROPERTY_DEFINITION('Diam\X2\00E8\X0\treCylindreFormat\X2\00E9\X0\','',#189);
#135=REPRESENTATION('',(#220),#6);
#136=GENERAL_PROPERTY('','Diam\X2\00E8\X0\treCylindreFormat\X2\00E9\X0\','');
#137=PROPERTY_DEFINITION('LongueurCylindreFormat\X2\00E9\X0\','',#189);
#138=REPRESENTATION('',(#221),#6);
#139=GENERAL_PROPERTY('','LongueurCylindreFormat\X2\00E9\X0\','');
#140=PROPERTY_DEFINITION('BrutRectangulaire','',#189);
#141=REPRESENTATION('',(#222),#6);
#142=GENERAL_PROPERTY('','BrutRectangulaire','');
#143=PROPERTY_DEFINITION('TailleXBoiteFormat\X2\00E9\X0\','',#189);
#144=REPRESENTATION('',(#223),#6);
#145=GENERAL_PROPERTY('','TailleXBoiteFormat\X2\00E9\X0\','');
#146=PROPERTY_DEFINITION('TailleYBoiteFormat\X2\00E9\X0\','',#189);
#147=REPRESENTATION('',(#224),#6);
#148=GENERAL_PROPERTY('','TailleYBoiteFormat\X2\00E9\X0\','');
#149=PROPERTY_DEFINITION('TailleZBoiteFormat\X2\00E9\X0\','',#189);
#150=REPRESENTATION('',(#225),#6);
#151=GENERAL_PROPERTY('','TailleZBoiteFormat\X2\00E9\X0\','');
#152=PROPERTY_DEFINITION('CreationDate','',#189);
#153=REPRESENTATION('',(#226),#6);
#154=GENERAL_PROPERTY('','CreationDate','');
#155=PROPERTY_DEFINITION('Minor Revision','',#189);
#156=REPRESENTATION('',(#227),#6);
#157=GENERAL_PROPERTY('','Minor Revision','');
#158=PRESENTATION_STYLE_ASSIGNMENT((#228));
#159=ADVANCED_FACE('',(#229,#230),#231,.F.);
#160=PRESENTATION_STYLE_ASSIGNMENT((#232));
#161=ADVANCED_FACE('',(#233,#234),#235,.F.);
#162=PRESENTATION_STYLE_ASSIGNMENT((#236));
#163=ADVANCED_FACE('',(#237,#238),#239,.F.);
#164=PRESENTATION_STYLE_ASSIGNMENT((#240));
#165=ADVANCED_FACE('',(#241,#242),#243,.T.);
#166=PRESENTATION_STYLE_ASSIGNMENT((#244));
#167=ADVANCED_FACE('',(#245,#246),#247,.T.);
#168=PRESENTATION_STYLE_ASSIGNMENT((#248));
#169=ADVANCED_FACE('',(#249,#250),#251,.T.);
#170=PRESENTATION_STYLE_ASSIGNMENT((#252));
#171=ADVANCED_FACE('',(#253,#254),#255,.T.);
#172=PRESENTATION_STYLE_ASSIGNMENT((#256));
#173=ADVANCED_FACE('',(#257,#258),#259,.F.);
#174=PRESENTATION_STYLE_ASSIGNMENT((#260));
#175=ADVANCED_FACE('',(#261,#262),#263,.F.);
#176=PRESENTATION_STYLE_ASSIGNMENT((#264));
#177=ADVANCED_FACE('',(#265,#266),#267,.T.);
#178=PRESENTATION_STYLE_ASSIGNMENT((#268));
#179=ADVANCED_FACE('',(#269,#270),#271,.T.);
#180=PRESENTATION_STYLE_ASSIGNMENT((#272));
#181=ADVANCED_FACE('',(#273,#274),#275,.T.);
#182=PRESENTATION_STYLE_ASSIGNMENT((#276));
#183=ADVANCED_FACE('',(#277),#278,.T.);
#184=PRESENTATION_STYLE_ASSIGNMENT((#279));
#185=ADVANCED_FACE('',(#280,#281),#282,.T.);
#186=PRESENTATION_STYLE_ASSIGNMENT((#283));
#187=MANIFOLD_SOLID_BREP('axe bielle simple',#284);
#188=PRODUCT('axe bielle simple','JG60.10','axe bielle simple',(#285));
#189=PRODUCT_DEFINITION('','NONE',#286,#2);
#190=AXIS2_PLACEMENT_3D('',#287,#288,#289);
#193=LENGTH_MEASURE_WITH_UNIT(LENGTH_MEASURE(1.0),#290);
#196=DIMENSIONAL_EXPONENTS(1.0,0.0,0.0,0.0,0.0,0.0,0.0);
#198=DIMENSIONAL_EXPONENTS(0.0,0.0,0.0,0.0,0.0,0.0,0.0);
#204=DESCRIPTIVE_REPRESENTATION_ITEM('','19_9281b669-8d2e-4ad7-a1b1-08eeb7db4d80&2_411_14_5');
#205=DESCRIPTIVE_REPRESENTATION_ITEM('','Usinage');
#206=DESCRIPTIVE_REPRESENTATION_ITEM('','axe bielle simple');
#207=DESCRIPTIVE_REPRESENTATION_ITEM('','Non classifi\X2\00E9\X0\');
#208=DESCRIPTIVE_REPRESENTATION_ITEM('','');
#209=DESCRIPTIVE_REPRESENTATION_ITEM('','-');
#210=DESCRIPTIVE_REPRESENTATION_ITEM('','-');
#211=DESCRIPTIVE_REPRESENTATION_ITEM('','');
#212=DESCRIPTIVE_REPRESENTATION_ITEM('','');
#213=DESCRIPTIVE_REPRESENTATION_ITEM('','Taleau pliage');
#214=DESCRIPTIVE_REPRESENTATION_ITEM('','');
#215=DESCRIPTIVE_REPRESENTATION_ITEM('','<non sp\X2\00E9\X0\cifi\X2\00E9\X0\>');
#216=DESCRIPTIVE_REPRESENTATION_ITEM('','Acier E335 EN 10278');
#217=DESCRIPTIVE_REPRESENTATION_ITEM('','Acier E335 EN 10278');
#218=DESCRIPTIVE_REPRESENTATION_ITEM('','-');
#219=DESCRIPTIVE_REPRESENTATION_ITEM('','\X2\00D8\X0\ 40,00 \X2\00D7\X0\ 145,00');
#220=DESCRIPTIVE_REPRESENTATION_ITEM('','40,00');
#221=DESCRIPTIVE_REPRESENTATION_ITEM('','145,00');
#222=DESCRIPTIVE_REPRESENTATION_ITEM('','145,00 \X2\00D7\X0\ 40,00 \X2\00D7\X0\ 40,00');
#223=DESCRIPTIVE_REPRESENTATION_ITEM('','145,00');
#224=DESCRIPTIVE_REPRESENTATION_ITEM('','40,00');
#225=DESCRIPTIVE_REPRESENTATION_ITEM('','40,00');
#226=DESCRIPTIVE_REPRESENTATION_ITEM('','10/05/2022 08:11:44');
#227=DESCRIPTIVE_REPRESENTATION_ITEM('','0');
#228=SURFACE_STYLE_USAGE(.BOTH.,#291);
#229=FACE_OUTER_BOUND('',#292,.T.);
#230=FACE_BOUND('',#293,.T.);
#231=CONICAL_SURFACE('',#294,866.025403784439,1.0471975511966);
#232=SURFACE_STYLE_USAGE(.BOTH.,#295);
#233=FACE_BOUND('',#296,.T.);
#234=FACE_OUTER_BOUND('',#297,.T.);
#235=CONICAL_SURFACE('',#298,4.25,0.785398163397448);
#236=SURFACE_STYLE_USAGE(.BOTH.,#299);
#237=FACE_OUTER_BOUND('',#300,.T.);
#238=FACE_OUTER_BOUND('',#301,.T.);
#239=CYLINDRICAL_SURFACE('',#302,4.25);
#240=SURFACE_STYLE_USAGE(.BOTH.,#303);
#241=FACE_OUTER_BOUND('',#304,.T.);
#242=FACE_OUTER_BOUND('',#305,.T.);
#243=CYLINDRICAL_SURFACE('',#306,17.5);
#244=SURFACE_STYLE_USAGE(.BOTH.,#307);
#245=FACE_OUTER_BOUND('',#308,.T.);
#246=FACE_OUTER_BOUND('',#309,.T.);
#247=CYLINDRICAL_SURFACE('',#310,15.0);
#248=SURFACE_STYLE_USAGE(.BOTH.,#311);
#249=FACE_OUTER_BOUND('',#312,.T.);
#250=FACE_BOUND('',#313,.T.);
#251=CONICAL_SURFACE('',#314,11.5,0.785398163397448);
#252=SURFACE_STYLE_USAGE(.BOTH.,#315);
#253=FACE_OUTER_BOUND('',#316,.T.);
#254=FACE_BOUND('',#317,.T.);
#255=CONICAL_SURFACE('',#318,13.0,0.785398163397448);
#256=SURFACE_STYLE_USAGE(.BOTH.,#319);
#257=FACE_OUTER_BOUND('',#320,.T.);
#258=FACE_OUTER_BOUND('',#321,.T.);
#259=CYLINDRICAL_SURFACE('',#322,4.25);
#260=SURFACE_STYLE_USAGE(.BOTH.,#323);
#261=FACE_OUTER_BOUND('',#324,.T.);
#262=FACE_OUTER_BOUND('',#325,.T.);
#263=TOROIDAL_SURFACE('',#326,13.0,0.5);
#264=SURFACE_STYLE_USAGE(.BOTH.,#327);
#265=FACE_BOUND('',#328,.T.);
#266=FACE_OUTER_BOUND('',#329,.T.);
#267=PLANE('',#330);
#268=SURFACE_STYLE_USAGE(.BOTH.,#331);
#269=FACE_BOUND('',#332,.T.);
#270=FACE_OUTER_BOUND('',#333,.T.);
#271=PLANE('',#334);
#272=SURFACE_STYLE_USAGE(.BOTH.,#335);
#273=FACE_OUTER_BOUND('',#336,.T.);
#274=FACE_OUTER_BOUND('',#337,.T.);
#275=CYLINDRICAL_SURFACE('',#338,12.5);
#276=SURFACE_STYLE_USAGE(.BOTH.,#339);
#277=FACE_OUTER_BOUND('',#340,.T.);
#278=PLANE('',#341);
#279=SURFACE_STYLE_USAGE(.BOTH.,#342);
#280=FACE_BOUND('',#343,.T.);
#281=FACE_OUTER_BOUND('',#344,.T.);
#282=PLANE('',#345);
#283=SURFACE_STYLE_USAGE(.BOTH.,#346);
#284=CLOSED_SHELL('',(#159,#161,#163,#165,#167,#169,#171,#173,#175,#177,#179,#181,#183,#185));
#285=PRODUCT_CONTEXT('',#73,'mechanical');
#286=PRODUCT_DEFINITION_FORMATION_WITH_SPECIFIED_SOURCE('B','NONE',#188,.NOT_KNOWN.);
#287=CARTESIAN_POINT('',(0.0,0.0,0.0));
#288=DIRECTION('',(0.0,0.0,1.0));
#289=DIRECTION('',(1.0,0.0,0.0));
#290= (NAMED_UNIT(#196)LENGTH_UNIT()SI_UNIT(.MILLI.,.METRE.));
#291=SURFACE_SIDE_STYLE('',(#348));
#292=EDGE_LOOP('',(#349));
#293=VERTEX_LOOP('',#350);
#294=AXIS2_PLACEMENT_3D('',#351,#352,#353);
#295=SURFACE_SIDE_STYLE('',(#354));
#296=EDGE_LOOP('',(#355));
#297=EDGE_LOOP('',(#356));
#298=AXIS2_PLACEMENT_3D('',#357,#358,#359);
#299=SURFACE_SIDE_STYLE('',(#360));
#300=EDGE_LOOP('',(#361));
#301=EDGE_LOOP('',(#362));
#302=AXIS2_PLACEMENT_3D('',#363,#364,#365);
#303=SURFACE_SIDE_STYLE('',(#366));
#304=EDGE_LOOP('',(#367));
#305=EDGE_LOOP('',(#368));
#306=AXIS2_PLACEMENT_3D('',#369,#370,#371);
#307=SURFACE_SIDE_STYLE('',(#372));
#308=EDGE_LOOP('',(#373));
#309=EDGE_LOOP('',(#374));
#310=AXIS2_PLACEMENT_3D('',#375,#376,#377);
#311=SURFACE_SIDE_STYLE('',(#378));
#312=EDGE_LOOP('',(#379));
#313=EDGE_LOOP('',(#380));
#314=AXIS2_PLACEMENT_3D('',#381,#382,#383);
#315=SURFACE_SIDE_STYLE('',(#384));
#316=EDGE_LOOP('',(#385));
#317=EDGE_LOOP('',(#386));
#318=AXIS2_PLACEMENT_3D('',#387,#388,#389);
#319=SURFACE_SIDE_STYLE('',(#390));
#320=EDGE_LOOP('',(#391));
#321=EDGE_LOOP('',(#392));
#322=AXIS2_PLACEMENT_3D('',#393,#394,#395);
#323=SURFACE_SIDE_STYLE('',(#396));
#324=EDGE_LOOP('',(#397));
#325=EDGE_LOOP('',(#398));
#326=AXIS2_PLACEMENT_3D('',#399,#400,#401);
#327=SURFACE_SIDE_STYLE('',(#402));
#328=EDGE_LOOP('',(#403));
#329=EDGE_LOOP('',(#404));
#330=AXIS2_PLACEMENT_3D('',#405,#406,#407);
#331=SURFACE_SIDE_STYLE('',(#408));
#332=EDGE_LOOP('',(#409));
#333=EDGE_LOOP('',(#410));
#334=AXIS2_PLACEMENT_3D('',#411,#412,#413);
#335=SURFACE_SIDE_STYLE('',(#414));
#336=EDGE_LOOP('',(#415));
#337=EDGE_LOOP('',(#416));
#338=AXIS2_PLACEMENT_3D('',#417,#418,#419);
#339=SURFACE_SIDE_STYLE('',(#420));
#340=EDGE_LOOP('',(#421));
#341=AXIS2_PLACEMENT_3D('',#422,#423,#424);
#342=SURFACE_SIDE_STYLE('',(#425));
#343=EDGE_LOOP('',(#426));
#344=EDGE_LOOP('',(#427));
#345=AXIS2_PLACEMENT_3D('',#428,#429,#430);
#346=SURFACE_SIDE_STYLE('',(#431));
#348=SURFACE_STYLE_FILL_AREA(#432);
#349=ORIENTED_EDGE('',*,*,#433,.F.);
#350=VERTEX_POINT('',#434);
#351=CARTESIAN_POINT('',(0.0,0.0,540.046261355944));
#352=DIRECTION('',(-0.0,-0.0,1.0));
#353=DIRECTION('',(1.0,0.0,0.0));
#354=SURFACE_STYLE_FILL_AREA(#435);
#355=ORIENTED_EDGE('',*,*,#436,.F.);
#356=ORIENTED_EDGE('',*,*,#437,.F.);
#357=CARTESIAN_POINT('',(0.0,0.0,69.25));
#358=DIRECTION('',(-0.0,-0.0,1.0));
#359=DIRECTION('',(1.0,0.0,0.0));
#360=SURFACE_STYLE_FILL_AREA(#438);
#361=ORIENTED_EDGE('',*,*,#439,.T.);
#362=ORIENTED_EDGE('',*,*,#433,.T.);
#363=CARTESIAN_POINT('',(0.0,0.0,70.0));
#364=DIRECTION('',(0.0,0.0,-1.0));
#365=DIRECTION('',(1.0,0.0,0.0));
#366=SURFACE_STYLE_FILL_AREA(#440);
#367=ORIENTED_EDGE('',*,*,#441,.F.);
#368=ORIENTED_EDGE('',*,*,#442,.F.);
#369=CARTESIAN_POINT('',(0.0,0.0,-70.0));
#370=DIRECTION('',(0.0,0.0,1.0));
#371=DIRECTION('',(1.0,0.0,0.0));
#372=SURFACE_STYLE_FILL_AREA(#443);
#373=ORIENTED_EDGE('',*,*,#444,.T.);
#374=ORIENTED_EDGE('',*,*,#445,.T.);
#375=CARTESIAN_POINT('',(0.0,0.0,-70.0));
#376=DIRECTION('',(0.0,0.0,1.0));
#377=DIRECTION('',(-1.0,0.0,0.0));
#378=SURFACE_STYLE_FILL_AREA(#446);
#379=ORIENTED_EDGE('',*,*,#447,.F.);
#380=ORIENTED_EDGE('',*,*,#448,.F.);
#381=CARTESIAN_POINT('',(0.0,0.0,70.0));
#382=DIRECTION('',(-0.0,0.0,-1.0));
#383=DIRECTION('',(-1.0,0.0,0.0));
#384=SURFACE_STYLE_FILL_AREA(#449);
#385=ORIENTED_EDGE('',*,*,#444,.F.);
#386=ORIENTED_EDGE('',*,*,#450,.F.);
#387=CARTESIAN_POINT('',(0.0,0.0,-70.0));
#388=DIRECTION('',(-0.0,-0.0,1.0));
#389=DIRECTION('',(1.0,0.0,0.0));
#390=SURFACE_STYLE_FILL_AREA(#451);
#391=ORIENTED_EDGE('',*,*,#436,.T.);
#392=ORIENTED_EDGE('',*,*,#439,.F.);
#393=CARTESIAN_POINT('',(0.0,0.0,70.0));
#394=DIRECTION('',(0.0,0.0,-1.0));
#395=DIRECTION('',(1.0,0.0,0.0));
#396=SURFACE_STYLE_FILL_AREA(#452);
#397=ORIENTED_EDGE('',*,*,#453,.F.);
#398=ORIENTED_EDGE('',*,*,#454,.F.);
#399=CARTESIAN_POINT('',(0.0,0.0,51.0));
#400=DIRECTION('',(0.0,0.0,1.0));
#401=DIRECTION('',(1.0,0.0,0.0));
#402=SURFACE_STYLE_FILL_AREA(#455);
#403=ORIENTED_EDGE('',*,*,#453,.T.);
#404=ORIENTED_EDGE('',*,*,#442,.T.);
#405=CARTESIAN_POINT('',(0.0,0.0,50.5));
#406=DIRECTION('',(0.0,0.0,1.0));
#407=DIRECTION('',(1.0,0.0,0.0));
#408=SURFACE_STYLE_FILL_AREA(#456);
#409=ORIENTED_EDGE('',*,*,#437,.T.);
#410=ORIENTED_EDGE('',*,*,#448,.T.);
#411=CARTESIAN_POINT('',(0.0,0.0,70.0));
#412=DIRECTION('',(0.0,0.0,1.0));
#413=DIRECTION('',(1.0,0.0,0.0));
#414=SURFACE_STYLE_FILL_AREA(#457);
#415=ORIENTED_EDGE('',*,*,#454,.T.);
#416=ORIENTED_EDGE('',*,*,#447,.T.);
#417=CARTESIAN_POINT('',(0.0,0.0,70.0));
#418=DIRECTION('',(0.0,0.0,-1.0));
#419=DIRECTION('',(1.0,0.0,0.0));
#420=SURFACE_STYLE_FILL_AREA(#458);
#421=ORIENTED_EDGE('',*,*,#450,.T.);
#422=CARTESIAN_POINT('',(0.0,0.0,-70.0));
#423=DIRECTION('',(0.0,0.0,-1.0));
#424=DIRECTION('',(-1.0,0.0,0.0));
#425=SURFACE_STYLE_FILL_AREA(#459);
#426=ORIENTED_EDGE('',*,*,#445,.F.);
#427=ORIENTED_EDGE('',*,*,#441,.T.);
#428=CARTESIAN_POINT('',(0.0,0.0,38.0));
#429=DIRECTION('',(0.0,0.0,-1.0));
#430=DIRECTION('',(-1.0,0.0,0.0));
#431=SURFACE_STYLE_FILL_AREA(#460);
#432=FILL_AREA_STYLE('',(#461));
#433=EDGE_CURVE('',#462,#462,#463,.T.);
#434=CARTESIAN_POINT('',(0.0,0.0,40.0462613559441));
#435=FILL_AREA_STYLE('',(#464));
#436=EDGE_CURVE('',#465,#465,#466,.T.);
#437=EDGE_CURVE('',#467,#467,#468,.T.);
#438=FILL_AREA_STYLE('',(#469));
#439=EDGE_CURVE('',#470,#470,#471,.F.);
#440=FILL_AREA_STYLE('',(#472));
#441=EDGE_CURVE('',#473,#473,#474,.T.);
#442=EDGE_CURVE('',#475,#475,#476,.T.);
#443=FILL_AREA_STYLE('',(#477));
#444=EDGE_CURVE('',#478,#478,#479,.F.);
#445=EDGE_CURVE('',#480,#480,#481,.T.);
#446=FILL_AREA_STYLE('',(#482));
#447=EDGE_CURVE('',#483,#483,#484,.F.);
#448=EDGE_CURVE('',#485,#485,#486,.T.);
#449=FILL_AREA_STYLE('',(#487));
#450=EDGE_CURVE('',#488,#488,#489,.T.);
#451=FILL_AREA_STYLE('',(#490));
#452=FILL_AREA_STYLE('',(#491));
#453=EDGE_CURVE('',#492,#492,#493,.F.);
#454=EDGE_CURVE('',#494,#494,#495,.T.);
#455=FILL_AREA_STYLE('',(#496));
#456=FILL_AREA_STYLE('',(#497));
#457=FILL_AREA_STYLE('',(#498));
#458=FILL_AREA_STYLE('',(#499));
#459=FILL_AREA_STYLE('',(#500));
#460=FILL_AREA_STYLE('',(#501));
#461=FILL_AREA_STYLE_COLOUR('',#502);
#462=VERTEX_POINT('',#503);
#463=CIRCLE('',#504,4.25);
#464=FILL_AREA_STYLE_COLOUR('',#505);
#465=VERTEX_POINT('',#506);
#466=CIRCLE('',#507,4.25);
#467=VERTEX_POINT('',#508);
#468=CIRCLE('',#509,5.0);
#469=FILL_AREA_STYLE_COLOUR('',#510);
#470=VERTEX_POINT('',#511);
#471=CIRCLE('',#512,4.25);
#472=FILL_AREA_STYLE_COLOUR('',#513);
#473=VERTEX_POINT('',#514);
#474=CIRCLE('',#515,17.5);
#475=VERTEX_POINT('',#516);
#476=CIRCLE('',#517,17.5);
#477=FILL_AREA_STYLE_COLOUR('',#518);
#478=VERTEX_POINT('',#519);
#479=CIRCLE('',#520,15.0);
#480=VERTEX_POINT('',#521);
#481=CIRCLE('',#522,15.0);
#482=FILL_AREA_STYLE_COLOUR('',#523);
#483=VERTEX_POINT('',#524);
#484=CIRCLE('',#525,12.5);
#485=VERTEX_POINT('',#526);
#486=CIRCLE('',#527,11.5);
#487=FILL_AREA_STYLE_COLOUR('',#528);
#488=VERTEX_POINT('',#529);
#489=CIRCLE('',#530,13.0);
#490=FILL_AREA_STYLE_COLOUR('',#531);
#491=FILL_AREA_STYLE_COLOUR('',#532);
#492=VERTEX_POINT('',#533);
#493=CIRCLE('',#534,13.0);
#494=VERTEX_POINT('',#535);
#495=CIRCLE('',#536,12.5);
#496=FILL_AREA_STYLE_COLOUR('',#537);
#497=FILL_AREA_STYLE_COLOUR('',#538);
#498=FILL_AREA_STYLE_COLOUR('',#539);
#499=FILL_AREA_STYLE_COLOUR('',#540);
#500=FILL_AREA_STYLE_COLOUR('',#541);
#501=FILL_AREA_STYLE_COLOUR('',#542);
#502=COLOUR_RGB('',0.752941191196442,0.752941191196442,0.752941191196442);
#503=CARTESIAN_POINT('',(4.25,0.0,42.5));
#504=AXIS2_PLACEMENT_3D('',#543,#544,#545);
#505=COLOUR_RGB('',0.752941191196442,0.752941191196442,0.752941191196442);
#506=CARTESIAN_POINT('',(4.25,0.0,69.25));
#507=AXIS2_PLACEMENT_3D('',#546,#547,#548);
#508=CARTESIAN_POINT('',(5.0,0.0,70.0));
#509=AXIS2_PLACEMENT_3D('',#549,#550,#551);
#510=COLOUR_RGB('',0.752941191196442,0.752941191196442,0.752941191196442);
#511=CARTESIAN_POINT('',(4.25,9.11094123636394E-15,50.0));
#512=AXIS2_PLACEMENT_3D('',#552,#553,#554);
#513=COLOUR_RGB('',0.752941191196442,0.752941191196442,0.752941191196442);
#514=CARTESIAN_POINT('',(-17.5,0.0,38.0));
#515=AXIS2_PLACEMENT_3D('',#555,#556,#557);
#516=CARTESIAN_POINT('',(17.5,0.0,50.5));
#517=AXIS2_PLACEMENT_3D('',#558,#559,#560);
#518=COLOUR_RGB('',0.752941191196442,0.752941191196442,0.752941191196442);
#519=CARTESIAN_POINT('',(-15.0,-3.67394039744206E-15,-68.0));
#520=AXIS2_PLACEMENT_3D('',#561,#562,#563);
#521=CARTESIAN_POINT('',(-15.0,0.0,38.0));
#522=AXIS2_PLACEMENT_3D('',#564,#565,#566);
#523=COLOUR_RGB('',0.752941191196442,0.752941191196442,0.752941191196442);
#524=CARTESIAN_POINT('',(12.5,-3.06161699786838E-15,69.0));
#525=AXIS2_PLACEMENT_3D('',#567,#568,#569);
#526=CARTESIAN_POINT('',(11.5,0.0,70.0));
#527=AXIS2_PLACEMENT_3D('',#570,#571,#572);
#528=COLOUR_RGB('',0.752941191196442,0.752941191196442,0.752941191196442);
#529=CARTESIAN_POINT('',(-13.0,0.0,-70.0));
#530=AXIS2_PLACEMENT_3D('',#573,#574,#575);
#531=COLOUR_RGB('',0.752941191196442,0.752941191196442,0.752941191196442);
#532=COLOUR_RGB('',0.752941191196442,0.752941191196442,0.752941191196442);
#533=CARTESIAN_POINT('',(13.0,-3.18408167778312E-15,50.5));
#534=AXIS2_PLACEMENT_3D('',#576,#577,#578);
#535=CARTESIAN_POINT('',(12.5,0.0,51.0));
#536=AXIS2_PLACEMENT_3D('',#579,#580,#581);
#537=COLOUR_RGB('',0.752941191196442,0.752941191196442,0.752941191196442);
#538=COLOUR_RGB('',0.752941191196442,0.752941191196442,0.752941191196442);
#539=COLOUR_RGB('',0.752941191196442,0.752941191196442,0.752941191196442);
#540=COLOUR_RGB('',0.752941191196442,0.752941191196442,0.752941191196442);
#541=COLOUR_RGB('',0.752941191196442,0.752941191196442,0.752941191196442);
#542=COLOUR_RGB('',0.752941191196442,0.752941191196442,0.752941191196442);
#543=CARTESIAN_POINT('',(0.0,0.0,42.5));
#544=DIRECTION('',(0.0,0.0,-1.0));
#545=DIRECTION('',(1.0,0.0,0.0));
#546=CARTESIAN_POINT('',(0.0,0.0,69.25));
#547=DIRECTION('',(0.0,0.0,1.0));
#548=DIRECTION('',(1.0,0.0,0.0));
#549=CARTESIAN_POINT('',(0.0,0.0,70.0));
#550=DIRECTION('',(0.0,0.0,-1.0));
#551=DIRECTION('',(1.0,0.0,0.0));
#552=CARTESIAN_POINT('',(0.0,0.0,50.0));
#553=DIRECTION('',(0.0,0.0,-1.0));
#554=DIRECTION('',(-1.0,0.0,0.0));
#555=CARTESIAN_POINT('',(0.0,0.0,38.0));
#556=DIRECTION('',(0.0,0.0,-1.0));
#557=DIRECTION('',(-1.0,0.0,0.0));
#558=CARTESIAN_POINT('',(0.0,0.0,50.5));
#559=DIRECTION('',(0.0,0.0,1.0));
#560=DIRECTION('',(1.0,0.0,0.0));
#561=CARTESIAN_POINT('',(0.0,0.0,-68.0));
#562=DIRECTION('',(0.0,0.0,-1.0));
#563=DIRECTION('',(-1.0,0.0,0.0));
#564=CARTESIAN_POINT('',(0.0,0.0,38.0));
#565=DIRECTION('',(0.0,0.0,-1.0));
#566=DIRECTION('',(-1.0,0.0,0.0));
#567=CARTESIAN_POINT('',(0.0,0.0,69.0));
#568=DIRECTION('',(0.0,0.0,1.0));
#569=DIRECTION('',(1.0,0.0,0.0));
#570=CARTESIAN_POINT('',(0.0,0.0,70.0));
#571=DIRECTION('',(0.0,0.0,1.0));
#572=DIRECTION('',(1.0,0.0,0.0));
#573=CARTESIAN_POINT('',(0.0,0.0,-70.0));
#574=DIRECTION('',(0.0,0.0,-1.0));
#575=DIRECTION('',(-1.0,0.0,0.0));
#576=CARTESIAN_POINT('',(0.0,0.0,50.5));
#577=DIRECTION('',(0.0,0.0,1.0));
#578=DIRECTION('',(1.0,0.0,0.0));
#579=CARTESIAN_POINT('',(0.0,0.0,51.0));
#580=DIRECTION('',(0.0,0.0,1.0));
#581=DIRECTION('',(1.0,0.0,0.0));
ENDSEC;
END-ISO-10303-21;
