ISO-10303-21;
HEADER;
/* Generated by software containing ST-Developer
 * from STEP Tools, Inc. (www.steptools.com) 
 */
/* OPTION: using custom renumber hook */

FILE_DESCRIPTION(
/* description */ ('STEP AP242',
'CAx-IF Rec.Pracs.---Representation and Presentation of Product Manufa
cturing Information (PMI)---4.0---2014-10-13',
'CAx-IF Rec.Pracs.---3D Tessellated Geometry---0.4---2014-09-14','2;1'),

/* implementation_level */ '2;1');

FILE_NAME(
/* name */ '6644a46e1878830958c7396d',
/* time_stamp */ '2024-05-15T12:02:55Z',
/* author */ (''),
/* organization */ (''),
/* preprocessor_version */ 'ST-DEVELOPER v20',
/* originating_system */ '  ',
/* authorisation */ '  ');

FILE_SCHEMA (('AP242_MANAGED_MODEL_BASED_3D_ENGINEERING_MIM_LF { 1 0 10303 442 1 1 4 }'));
ENDSEC;

DATA;
#10=SHAPE_REPRESENTATION_RELATIONSHIP('','',#317,#11);
#11=ADVANCED_BREP_SHAPE_REPRESENTATION('',(#315),#515);
#12=CYLINDRICAL_SURFACE('',#324,0.00308);
#13=CYLINDRICAL_SURFACE('',#328,0.00308);
#14=CYLINDRICAL_SURFACE('',#343,0.0015);
#15=CYLINDRICAL_SURFACE('',#344,0.0015);
#16=CYLINDRICAL_SURFACE('',#345,0.0015);
#17=CYLINDRICAL_SURFACE('',#346,0.0015);
#18=CIRCLE('',#321,0.0015);
#19=CIRCLE('',#322,0.0015);
#20=CIRCLE('',#325,0.00308);
#21=CIRCLE('',#326,0.00308);
#22=CIRCLE('',#329,0.00308);
#23=CIRCLE('',#330,0.00308);
#24=CIRCLE('',#333,0.0015);
#25=CIRCLE('',#334,0.0015);
#26=CIRCLE('',#337,0.0015);
#27=CIRCLE('',#338,0.0015);
#28=CIRCLE('',#339,0.0015);
#29=CIRCLE('',#340,0.0015);
#30=ORIENTED_EDGE('',*,*,#106,.F.);
#31=ORIENTED_EDGE('',*,*,#107,.F.);
#32=ORIENTED_EDGE('',*,*,#108,.T.);
#33=ORIENTED_EDGE('',*,*,#109,.T.);
#34=ORIENTED_EDGE('',*,*,#110,.T.);
#35=ORIENTED_EDGE('',*,*,#111,.T.);
#36=ORIENTED_EDGE('',*,*,#112,.T.);
#37=ORIENTED_EDGE('',*,*,#109,.F.);
#38=ORIENTED_EDGE('',*,*,#113,.F.);
#39=ORIENTED_EDGE('',*,*,#114,.T.);
#40=ORIENTED_EDGE('',*,*,#115,.T.);
#41=ORIENTED_EDGE('',*,*,#114,.F.);
#42=ORIENTED_EDGE('',*,*,#116,.F.);
#43=ORIENTED_EDGE('',*,*,#117,.T.);
#44=ORIENTED_EDGE('',*,*,#118,.T.);
#45=ORIENTED_EDGE('',*,*,#117,.F.);
#46=ORIENTED_EDGE('',*,*,#119,.F.);
#47=ORIENTED_EDGE('',*,*,#120,.T.);
#48=ORIENTED_EDGE('',*,*,#121,.T.);
#49=ORIENTED_EDGE('',*,*,#120,.F.);
#50=ORIENTED_EDGE('',*,*,#122,.F.);
#51=ORIENTED_EDGE('',*,*,#123,.T.);
#52=ORIENTED_EDGE('',*,*,#124,.T.);
#53=ORIENTED_EDGE('',*,*,#123,.F.);
#54=ORIENTED_EDGE('',*,*,#125,.F.);
#55=ORIENTED_EDGE('',*,*,#126,.T.);
#56=ORIENTED_EDGE('',*,*,#127,.T.);
#57=ORIENTED_EDGE('',*,*,#126,.F.);
#58=ORIENTED_EDGE('',*,*,#128,.F.);
#59=ORIENTED_EDGE('',*,*,#129,.T.);
#60=ORIENTED_EDGE('',*,*,#130,.T.);
#61=ORIENTED_EDGE('',*,*,#131,.T.);
#62=ORIENTED_EDGE('',*,*,#132,.T.);
#63=ORIENTED_EDGE('',*,*,#129,.F.);
#64=ORIENTED_EDGE('',*,*,#133,.F.);
#65=ORIENTED_EDGE('',*,*,#134,.T.);
#66=ORIENTED_EDGE('',*,*,#135,.F.);
#67=ORIENTED_EDGE('',*,*,#134,.F.);
#68=ORIENTED_EDGE('',*,*,#136,.T.);
#69=ORIENTED_EDGE('',*,*,#137,.T.);
#70=ORIENTED_EDGE('',*,*,#138,.F.);
#71=ORIENTED_EDGE('',*,*,#139,.F.);
#72=ORIENTED_EDGE('',*,*,#140,.F.);
#73=ORIENTED_EDGE('',*,*,#141,.F.);
#74=ORIENTED_EDGE('',*,*,#142,.F.);
#75=ORIENTED_EDGE('',*,*,#137,.F.);
#76=ORIENTED_EDGE('',*,*,#143,.T.);
#77=ORIENTED_EDGE('',*,*,#107,.T.);
#78=ORIENTED_EDGE('',*,*,#108,.F.);
#79=ORIENTED_EDGE('',*,*,#143,.F.);
#80=ORIENTED_EDGE('',*,*,#136,.F.);
#81=ORIENTED_EDGE('',*,*,#133,.T.);
#82=ORIENTED_EDGE('',*,*,#128,.T.);
#83=ORIENTED_EDGE('',*,*,#125,.T.);
#84=ORIENTED_EDGE('',*,*,#122,.T.);
#85=ORIENTED_EDGE('',*,*,#119,.T.);
#86=ORIENTED_EDGE('',*,*,#116,.T.);
#87=ORIENTED_EDGE('',*,*,#113,.T.);
#88=ORIENTED_EDGE('',*,*,#106,.T.);
#89=ORIENTED_EDGE('',*,*,#112,.F.);
#90=ORIENTED_EDGE('',*,*,#115,.F.);
#91=ORIENTED_EDGE('',*,*,#118,.F.);
#92=ORIENTED_EDGE('',*,*,#121,.F.);
#93=ORIENTED_EDGE('',*,*,#124,.F.);
#94=ORIENTED_EDGE('',*,*,#127,.F.);
#95=ORIENTED_EDGE('',*,*,#132,.F.);
#96=ORIENTED_EDGE('',*,*,#135,.T.);
#97=ORIENTED_EDGE('',*,*,#142,.T.);
#98=ORIENTED_EDGE('',*,*,#139,.T.);
#99=ORIENTED_EDGE('',*,*,#131,.F.);
#100=ORIENTED_EDGE('',*,*,#141,.T.);
#101=ORIENTED_EDGE('',*,*,#130,.F.);
#102=ORIENTED_EDGE('',*,*,#138,.T.);
#103=ORIENTED_EDGE('',*,*,#111,.F.);
#104=ORIENTED_EDGE('',*,*,#140,.T.);
#105=ORIENTED_EDGE('',*,*,#110,.F.);
#106=EDGE_CURVE('',#144,#145,#172,.T.);
#107=EDGE_CURVE('',#146,#144,#173,.T.);
#108=EDGE_CURVE('',#146,#147,#174,.T.);
#109=EDGE_CURVE('',#147,#145,#175,.T.);
#110=EDGE_CURVE('',#148,#148,#18,.T.);
#111=EDGE_CURVE('',#149,#149,#19,.T.);
#112=EDGE_CURVE('',#150,#145,#176,.T.);
#113=EDGE_CURVE('',#151,#147,#177,.T.);
#114=EDGE_CURVE('',#151,#150,#178,.T.);
#115=EDGE_CURVE('',#152,#150,#179,.T.);
#116=EDGE_CURVE('',#153,#151,#180,.T.);
#117=EDGE_CURVE('',#153,#152,#181,.T.);
#118=EDGE_CURVE('',#154,#152,#20,.T.);
#119=EDGE_CURVE('',#155,#153,#21,.T.);
#120=EDGE_CURVE('',#155,#154,#182,.T.);
#121=EDGE_CURVE('',#156,#154,#183,.T.);
#122=EDGE_CURVE('',#157,#155,#184,.T.);
#123=EDGE_CURVE('',#157,#156,#185,.T.);
#124=EDGE_CURVE('',#158,#156,#22,.T.);
#125=EDGE_CURVE('',#159,#157,#23,.T.);
#126=EDGE_CURVE('',#159,#158,#186,.T.);
#127=EDGE_CURVE('',#160,#158,#187,.T.);
#128=EDGE_CURVE('',#161,#159,#188,.T.);
#129=EDGE_CURVE('',#161,#160,#189,.T.);
#130=EDGE_CURVE('',#162,#162,#24,.T.);
#131=EDGE_CURVE('',#163,#163,#25,.T.);
#132=EDGE_CURVE('',#164,#160,#190,.T.);
#133=EDGE_CURVE('',#165,#161,#191,.T.);
#134=EDGE_CURVE('',#165,#164,#192,.T.);
#135=EDGE_CURVE('',#164,#166,#193,.T.);
#136=EDGE_CURVE('',#165,#167,#194,.T.);
#137=EDGE_CURVE('',#167,#166,#195,.T.);
#138=EDGE_CURVE('',#168,#168,#26,.T.);
#139=EDGE_CURVE('',#169,#169,#27,.T.);
#140=EDGE_CURVE('',#170,#170,#28,.T.);
#141=EDGE_CURVE('',#171,#171,#29,.T.);
#142=EDGE_CURVE('',#166,#144,#196,.T.);
#143=EDGE_CURVE('',#167,#146,#197,.T.);
#144=VERTEX_POINT('',#434);
#145=VERTEX_POINT('',#435);
#146=VERTEX_POINT('',#437);
#147=VERTEX_POINT('',#439);
#148=VERTEX_POINT('',#443);
#149=VERTEX_POINT('',#445);
#150=VERTEX_POINT('',#447);
#151=VERTEX_POINT('',#449);
#152=VERTEX_POINT('',#453);
#153=VERTEX_POINT('',#455);
#154=VERTEX_POINT('',#459);
#155=VERTEX_POINT('',#461);
#156=VERTEX_POINT('',#465);
#157=VERTEX_POINT('',#467);
#158=VERTEX_POINT('',#471);
#159=VERTEX_POINT('',#473);
#160=VERTEX_POINT('',#477);
#161=VERTEX_POINT('',#479);
#162=VERTEX_POINT('',#483);
#163=VERTEX_POINT('',#485);
#164=VERTEX_POINT('',#487);
#165=VERTEX_POINT('',#489);
#166=VERTEX_POINT('',#493);
#167=VERTEX_POINT('',#495);
#168=VERTEX_POINT('',#499);
#169=VERTEX_POINT('',#501);
#170=VERTEX_POINT('',#503);
#171=VERTEX_POINT('',#505);
#172=LINE('',#433,#198);
#173=LINE('',#436,#199);
#174=LINE('',#438,#200);
#175=LINE('',#440,#201);
#176=LINE('',#446,#202);
#177=LINE('',#448,#203);
#178=LINE('',#450,#204);
#179=LINE('',#452,#205);
#180=LINE('',#454,#206);
#181=LINE('',#456,#207);
#182=LINE('',#462,#208);
#183=LINE('',#464,#209);
#184=LINE('',#466,#210);
#185=LINE('',#468,#211);
#186=LINE('',#474,#212);
#187=LINE('',#476,#213);
#188=LINE('',#478,#214);
#189=LINE('',#480,#215);
#190=LINE('',#486,#216);
#191=LINE('',#488,#217);
#192=LINE('',#490,#218);
#193=LINE('',#492,#219);
#194=LINE('',#494,#220);
#195=LINE('',#496,#221);
#196=LINE('',#506,#222);
#197=LINE('',#507,#223);
#198=VECTOR('',#351,1.);
#199=VECTOR('',#352,1.);
#200=VECTOR('',#353,1.);
#201=VECTOR('',#354,1.);
#202=VECTOR('',#361,1.);
#203=VECTOR('',#362,1.);
#204=VECTOR('',#363,1.);
#205=VECTOR('',#366,1.);
#206=VECTOR('',#367,1.);
#207=VECTOR('',#368,1.);
#208=VECTOR('',#375,1.);
#209=VECTOR('',#378,1.);
#210=VECTOR('',#379,1.);
#211=VECTOR('',#380,1.);
#212=VECTOR('',#387,1.);
#213=VECTOR('',#390,1.);
#214=VECTOR('',#391,1.);
#215=VECTOR('',#392,1.);
#216=VECTOR('',#399,1.);
#217=VECTOR('',#400,1.);
#218=VECTOR('',#401,1.);
#219=VECTOR('',#404,1.);
#220=VECTOR('',#405,1.);
#221=VECTOR('',#406,1.);
#222=VECTOR('',#417,1.);
#223=VECTOR('',#418,1.);
#224=EDGE_LOOP('',(#30,#31,#32,#33));
#225=EDGE_LOOP('',(#34));
#226=EDGE_LOOP('',(#35));
#227=EDGE_LOOP('',(#36,#37,#38,#39));
#228=EDGE_LOOP('',(#40,#41,#42,#43));
#229=EDGE_LOOP('',(#44,#45,#46,#47));
#230=EDGE_LOOP('',(#48,#49,#50,#51));
#231=EDGE_LOOP('',(#52,#53,#54,#55));
#232=EDGE_LOOP('',(#56,#57,#58,#59));
#233=EDGE_LOOP('',(#60));
#234=EDGE_LOOP('',(#61));
#235=EDGE_LOOP('',(#62,#63,#64,#65));
#236=EDGE_LOOP('',(#66,#67,#68,#69));
#237=EDGE_LOOP('',(#70));
#238=EDGE_LOOP('',(#71));
#239=EDGE_LOOP('',(#72));
#240=EDGE_LOOP('',(#73));
#241=EDGE_LOOP('',(#74,#75,#76,#77));
#242=EDGE_LOOP('',(#78,#79,#80,#81,#82,#83,#84,#85,#86,#87));
#243=EDGE_LOOP('',(#88,#89,#90,#91,#92,#93,#94,#95,#96,#97));
#244=EDGE_LOOP('',(#98));
#245=EDGE_LOOP('',(#99));
#246=EDGE_LOOP('',(#100));
#247=EDGE_LOOP('',(#101));
#248=EDGE_LOOP('',(#102));
#249=EDGE_LOOP('',(#103));
#250=EDGE_LOOP('',(#104));
#251=EDGE_LOOP('',(#105));
#252=FACE_BOUND('',#224,.T.);
#253=FACE_BOUND('',#225,.T.);
#254=FACE_BOUND('',#226,.T.);
#255=FACE_BOUND('',#227,.T.);
#256=FACE_BOUND('',#228,.T.);
#257=FACE_BOUND('',#229,.T.);
#258=FACE_BOUND('',#230,.T.);
#259=FACE_BOUND('',#231,.T.);
#260=FACE_BOUND('',#232,.T.);
#261=FACE_BOUND('',#233,.T.);
#262=FACE_BOUND('',#234,.T.);
#263=FACE_BOUND('',#235,.T.);
#264=FACE_BOUND('',#236,.T.);
#265=FACE_BOUND('',#237,.T.);
#266=FACE_BOUND('',#238,.T.);
#267=FACE_BOUND('',#239,.T.);
#268=FACE_BOUND('',#240,.T.);
#269=FACE_BOUND('',#241,.T.);
#270=FACE_BOUND('',#242,.T.);
#271=FACE_BOUND('',#243,.T.);
#272=FACE_BOUND('',#244,.T.);
#273=FACE_BOUND('',#245,.T.);
#274=FACE_BOUND('',#246,.T.);
#275=FACE_BOUND('',#247,.T.);
#276=FACE_BOUND('',#248,.T.);
#277=FACE_BOUND('',#249,.T.);
#278=FACE_BOUND('',#250,.T.);
#279=FACE_BOUND('',#251,.T.);
#280=PLANE('',#319);
#281=PLANE('',#320);
#282=PLANE('',#323);
#283=PLANE('',#327);
#284=PLANE('',#331);
#285=PLANE('',#332);
#286=PLANE('',#335);
#287=PLANE('',#336);
#288=PLANE('',#341);
#289=PLANE('',#342);
#290=ADVANCED_FACE('',(#252),#280,.T.);
#291=ADVANCED_FACE('',(#253,#254,#255),#281,.F.);
#292=ADVANCED_FACE('',(#256),#282,.F.);
#293=ADVANCED_FACE('',(#257),#12,.F.);
#294=ADVANCED_FACE('',(#258),#283,.F.);
#295=ADVANCED_FACE('',(#259),#13,.F.);
#296=ADVANCED_FACE('',(#260),#284,.F.);
#297=ADVANCED_FACE('',(#261,#262,#263),#285,.F.);
#298=ADVANCED_FACE('',(#264),#286,.T.);
#299=ADVANCED_FACE('',(#265,#266,#267,#268,#269),#287,.T.);
#300=ADVANCED_FACE('',(#270),#288,.F.);
#301=ADVANCED_FACE('',(#271),#289,.T.);
#302=ADVANCED_FACE('',(#272,#273),#14,.F.);
#303=ADVANCED_FACE('',(#274,#275),#15,.F.);
#304=ADVANCED_FACE('',(#276,#277),#16,.F.);
#305=ADVANCED_FACE('',(#278,#279),#17,.F.);
#306=CLOSED_SHELL('',(#290,#291,#292,#293,#294,#295,#296,#297,#298,#299,
#300,#301,#302,#303,#304,#305));
#307=STYLED_ITEM('',(#308),#315);
#308=PRESENTATION_STYLE_ASSIGNMENT((#309));
#309=SURFACE_STYLE_USAGE(.BOTH.,#310);
#310=SURFACE_SIDE_STYLE('',(#311));
#311=SURFACE_STYLE_FILL_AREA(#312);
#312=FILL_AREA_STYLE('',(#313));
#313=FILL_AREA_STYLE_COLOUR('',#314);
#314=COLOUR_RGB('',1.,0.756862745098039,0.0549019607843137);
#315=MANIFOLD_SOLID_BREP('corps_paveB',#306);
#316=SHAPE_DEFINITION_REPRESENTATION(#520,#317);
#317=SHAPE_REPRESENTATION('corps_paveB',(#318),#515);
#318=AXIS2_PLACEMENT_3D('',#431,#347,#348);
#319=AXIS2_PLACEMENT_3D('',#432,#349,#350);
#320=AXIS2_PLACEMENT_3D('',#441,#355,#356);
#321=AXIS2_PLACEMENT_3D('',#442,#357,#358);
#322=AXIS2_PLACEMENT_3D('',#444,#359,#360);
#323=AXIS2_PLACEMENT_3D('',#451,#364,#365);
#324=AXIS2_PLACEMENT_3D('',#457,#369,#370);
#325=AXIS2_PLACEMENT_3D('',#458,#371,#372);
#326=AXIS2_PLACEMENT_3D('',#460,#373,#374);
#327=AXIS2_PLACEMENT_3D('',#463,#376,#377);
#328=AXIS2_PLACEMENT_3D('',#469,#381,#382);
#329=AXIS2_PLACEMENT_3D('',#470,#383,#384);
#330=AXIS2_PLACEMENT_3D('',#472,#385,#386);
#331=AXIS2_PLACEMENT_3D('',#475,#388,#389);
#332=AXIS2_PLACEMENT_3D('',#481,#393,#394);
#333=AXIS2_PLACEMENT_3D('',#482,#395,#396);
#334=AXIS2_PLACEMENT_3D('',#484,#397,#398);
#335=AXIS2_PLACEMENT_3D('',#491,#402,#403);
#336=AXIS2_PLACEMENT_3D('',#497,#407,#408);
#337=AXIS2_PLACEMENT_3D('',#498,#409,#410);
#338=AXIS2_PLACEMENT_3D('',#500,#411,#412);
#339=AXIS2_PLACEMENT_3D('',#502,#413,#414);
#340=AXIS2_PLACEMENT_3D('',#504,#415,#416);
#341=AXIS2_PLACEMENT_3D('',#508,#419,#420);
#342=AXIS2_PLACEMENT_3D('',#509,#421,#422);
#343=AXIS2_PLACEMENT_3D('',#510,#423,#424);
#344=AXIS2_PLACEMENT_3D('',#511,#425,#426);
#345=AXIS2_PLACEMENT_3D('',#512,#427,#428);
#346=AXIS2_PLACEMENT_3D('',#513,#429,#430);
#347=DIRECTION('',(0.,0.,1.));
#348=DIRECTION('',(1.,0.,0.));
#349=DIRECTION('',(1.,0.,0.));
#350=DIRECTION('',(0.,0.,-1.));
#351=DIRECTION('',(0.,-1.,0.));
#352=DIRECTION('',(0.,0.,-1.));
#353=DIRECTION('',(0.,-1.,0.));
#354=DIRECTION('',(0.,0.,-1.));
#355=DIRECTION('',(0.,1.,0.));
#356=DIRECTION('',(0.,0.,1.));
#357=DIRECTION('',(0.,1.,0.));
#358=DIRECTION('',(0.,0.,1.));
#359=DIRECTION('',(0.,1.,0.));
#360=DIRECTION('',(0.,0.,1.));
#361=DIRECTION('',(1.,0.,0.));
#362=DIRECTION('',(1.,0.,0.));
#363=DIRECTION('',(0.,0.,-1.));
#364=DIRECTION('',(1.,3.16997259844147E-16,0.));
#365=DIRECTION('',(-3.16997259844147E-16,1.,0.));
#366=DIRECTION('',(3.16997259844147E-16,-1.,0.));
#367=DIRECTION('',(3.16997259844147E-16,-1.,0.));
#368=DIRECTION('',(0.,0.,-1.));
#369=DIRECTION('',(0.,0.,-1.));
#370=DIRECTION('',(-1.,0.,0.));
#371=DIRECTION('',(0.,0.,-1.));
#372=DIRECTION('',(-1.,0.,0.));
#373=DIRECTION('',(0.,0.,-1.));
#374=DIRECTION('',(-1.,0.,0.));
#375=DIRECTION('',(0.,0.,-1.));
#376=DIRECTION('',(0.,1.,0.));
#377=DIRECTION('',(0.,0.,1.));
#378=DIRECTION('',(1.,0.,0.));
#379=DIRECTION('',(1.,0.,0.));
#380=DIRECTION('',(0.,0.,-1.));
#381=DIRECTION('',(0.,0.,-1.));
#382=DIRECTION('',(-1.,0.,0.));
#383=DIRECTION('',(0.,0.,-1.));
#384=DIRECTION('',(-1.,0.,0.));
#385=DIRECTION('',(0.,0.,-1.));
#386=DIRECTION('',(-1.,0.,0.));
#387=DIRECTION('',(0.,0.,-1.));
#388=DIRECTION('',(-1.,-3.16997259844147E-16,0.));
#389=DIRECTION('',(3.16997259844147E-16,-1.,0.));
#390=DIRECTION('',(-3.16997259844147E-16,1.,0.));
#391=DIRECTION('',(-3.16997259844147E-16,1.,0.));
#392=DIRECTION('',(0.,0.,-1.));
#393=DIRECTION('',(0.,1.,0.));
#394=DIRECTION('',(0.,0.,1.));
#395=DIRECTION('',(0.,1.,0.));
#396=DIRECTION('',(0.,0.,1.));
#397=DIRECTION('',(0.,1.,0.));
#398=DIRECTION('',(0.,0.,1.));
#399=DIRECTION('',(1.,0.,0.));
#400=DIRECTION('',(1.,0.,0.));
#401=DIRECTION('',(0.,0.,-1.));
#402=DIRECTION('',(-1.,0.,0.));
#403=DIRECTION('',(0.,0.,1.));
#404=DIRECTION('',(0.,1.,0.));
#405=DIRECTION('',(0.,1.,0.));
#406=DIRECTION('',(0.,0.,-1.));
#407=DIRECTION('',(-2.77555756156289E-16,1.,0.));
#408=DIRECTION('',(-1.,-2.77555756156289E-16,0.));
#409=DIRECTION('',(-2.77555756156289E-16,1.,0.));
#410=DIRECTION('',(-1.,-2.77555756156289E-16,0.));
#411=DIRECTION('',(-2.77555756156289E-16,1.,0.));
#412=DIRECTION('',(-1.,-2.77555756156289E-16,0.));
#413=DIRECTION('',(-2.77555756156289E-16,1.,0.));
#414=DIRECTION('',(-1.,-2.77555756156289E-16,0.));
#415=DIRECTION('',(-2.77555756156289E-16,1.,0.));
#416=DIRECTION('',(-1.,-2.77555756156289E-16,0.));
#417=DIRECTION('',(1.,2.77555756156289E-16,0.));
#418=DIRECTION('',(1.,2.77555756156289E-16,0.));
#419=DIRECTION('',(0.,0.,-1.));
#420=DIRECTION('',(1.,0.,0.));
#421=DIRECTION('',(0.,0.,-1.));
#422=DIRECTION('',(1.,0.,0.));
#423=DIRECTION('',(0.,-1.,0.));
#424=DIRECTION('',(0.,0.,-1.));
#425=DIRECTION('',(0.,-1.,0.));
#426=DIRECTION('',(0.,0.,-1.));
#427=DIRECTION('',(0.,-1.,0.));
#428=DIRECTION('',(0.,0.,-1.));
#429=DIRECTION('',(0.,-1.,0.));
#430=DIRECTION('',(0.,0.,-1.));
#431=CARTESIAN_POINT('',(0.,0.,0.));
#432=CARTESIAN_POINT('',(0.0125,0.0167361805537841,0.015));
#433=CARTESIAN_POINT('',(0.0125,0.0167361805537841,0.));
#434=CARTESIAN_POINT('',(0.0125,0.0227223611075682,0.));
#435=CARTESIAN_POINT('',(0.0125,-0.00575,0.));
#436=CARTESIAN_POINT('',(0.0125,0.0227223611075682,0.015));
#437=CARTESIAN_POINT('',(0.0125,0.0227223611075682,0.015));
#438=CARTESIAN_POINT('',(0.0125,0.0167361805537841,0.015));
#439=CARTESIAN_POINT('',(0.0125,-0.00575,0.015));
#440=CARTESIAN_POINT('',(0.0125,-0.00575,0.015));
#441=CARTESIAN_POINT('',(0.009165,-0.00575,0.015));
#442=CARTESIAN_POINT('',(0.0095,-0.00575,0.012));
#443=CARTESIAN_POINT('',(0.0095,-0.00575,0.0135));
#444=CARTESIAN_POINT('',(0.0095,-0.00575,0.003));
#445=CARTESIAN_POINT('',(0.0095,-0.00575,0.0045));
#446=CARTESIAN_POINT('',(0.009165,-0.00575,0.));
#447=CARTESIAN_POINT('',(0.00583,-0.00575,0.));
#448=CARTESIAN_POINT('',(0.009165,-0.00575,0.015));
#449=CARTESIAN_POINT('',(0.00583,-0.00575,0.015));
#450=CARTESIAN_POINT('',(0.00583,-0.00575,0.015));
#451=CARTESIAN_POINT('',(0.00583,1.38194462158962E-5,0.015));
#452=CARTESIAN_POINT('',(0.00583,1.38194462158962E-5,0.));
#453=CARTESIAN_POINT('',(0.00583,0.00275,0.));
#454=CARTESIAN_POINT('',(0.00583,1.38194462158962E-5,0.015));
#455=CARTESIAN_POINT('',(0.00583,0.00275,0.015));
#456=CARTESIAN_POINT('',(0.00583,0.00275,0.015));
#457=CARTESIAN_POINT('',(0.00275,0.00275,0.015));
#458=CARTESIAN_POINT('',(0.00275,0.00275,0.));
#459=CARTESIAN_POINT('',(0.00275,0.00583,0.));
#460=CARTESIAN_POINT('',(0.00275,0.00275,0.015));
#461=CARTESIAN_POINT('',(0.00275,0.00583,0.015));
#462=CARTESIAN_POINT('',(0.00275,0.00583,0.015));
#463=CARTESIAN_POINT('',(-4.33680868994202E-19,0.00583,0.015));
#464=CARTESIAN_POINT('',(-4.33680868994202E-19,0.00583,0.));
#465=CARTESIAN_POINT('',(-0.00275,0.00583,0.));
#466=CARTESIAN_POINT('',(-4.33680868994202E-19,0.00583,0.015));
#467=CARTESIAN_POINT('',(-0.00275,0.00583,0.015));
#468=CARTESIAN_POINT('',(-0.00275,0.00583,0.015));
#469=CARTESIAN_POINT('',(-0.00275,0.00275,0.015));
#470=CARTESIAN_POINT('',(-0.00275,0.00275,0.));
#471=CARTESIAN_POINT('',(-0.00583,0.00275,0.));
#472=CARTESIAN_POINT('',(-0.00275,0.00275,0.015));
#473=CARTESIAN_POINT('',(-0.00583,0.00275,0.015));
#474=CARTESIAN_POINT('',(-0.00583,0.00275,0.015));
#475=CARTESIAN_POINT('',(-0.00583,1.38194462158945E-5,0.015));
#476=CARTESIAN_POINT('',(-0.00583,1.38194462158945E-5,0.));
#477=CARTESIAN_POINT('',(-0.00583,-0.00575,0.));
#478=CARTESIAN_POINT('',(-0.00583,1.38194462158945E-5,0.015));
#479=CARTESIAN_POINT('',(-0.00583,-0.00575,0.015));
#480=CARTESIAN_POINT('',(-0.00583,-0.00575,0.015));
#481=CARTESIAN_POINT('',(-0.009165,-0.00575,0.015));
#482=CARTESIAN_POINT('',(-0.0095,-0.00575,0.003));
#483=CARTESIAN_POINT('',(-0.0095,-0.00575,0.0045));
#484=CARTESIAN_POINT('',(-0.0095,-0.00575,0.012));
#485=CARTESIAN_POINT('',(-0.0095,-0.00575,0.0135));
#486=CARTESIAN_POINT('',(-0.009165,-0.00575,0.));
#487=CARTESIAN_POINT('',(-0.0125,-0.00575,0.));
#488=CARTESIAN_POINT('',(-0.009165,-0.00575,0.015));
#489=CARTESIAN_POINT('',(-0.0125,-0.00575,0.015));
#490=CARTESIAN_POINT('',(-0.0125,-0.00575,0.015));
#491=CARTESIAN_POINT('',(-0.0125,0.0167361805537841,0.015));
#492=CARTESIAN_POINT('',(-0.0125,0.0167361805537841,0.));
#493=CARTESIAN_POINT('',(-0.0125,0.0227223611075682,0.));
#494=CARTESIAN_POINT('',(-0.0125,0.0167361805537841,0.015));
#495=CARTESIAN_POINT('',(-0.0125,0.0227223611075682,0.015));
#496=CARTESIAN_POINT('',(-0.0125,0.0227223611075682,0.015));
#497=CARTESIAN_POINT('',(-3.46944695195361E-18,0.0227223611075682,0.015));
#498=CARTESIAN_POINT('',(0.0095,0.0227223611075682,0.003));
#499=CARTESIAN_POINT('',(0.008,0.0227223611075682,0.003));
#500=CARTESIAN_POINT('',(-0.0095,0.0227223611075682,0.012));
#501=CARTESIAN_POINT('',(-0.011,0.0227223611075682,0.012));
#502=CARTESIAN_POINT('',(0.0095,0.0227223611075682,0.012));
#503=CARTESIAN_POINT('',(0.008,0.0227223611075682,0.012));
#504=CARTESIAN_POINT('',(-0.0095,0.0227223611075682,0.003));
#505=CARTESIAN_POINT('',(-0.011,0.0227223611075682,0.003));
#506=CARTESIAN_POINT('',(-3.46944695195361E-18,0.0227223611075682,0.));
#507=CARTESIAN_POINT('',(-3.46944695195361E-18,0.0227223611075682,0.015));
#508=CARTESIAN_POINT('',(-3.46944695195361E-18,0.0059861805537841,0.015));
#509=CARTESIAN_POINT('',(-3.46944695195361E-18,0.0059861805537841,0.));
#510=CARTESIAN_POINT('',(-0.0095,0.00925,0.012));
#511=CARTESIAN_POINT('',(-0.0095,0.00925,0.003));
#512=CARTESIAN_POINT('',(0.0095,0.00925,0.003));
#513=CARTESIAN_POINT('',(0.0095,0.00925,0.012));
#514=MECHANICAL_DESIGN_GEOMETRIC_PRESENTATION_REPRESENTATION('',(#307),
#515);
#515=(
GEOMETRIC_REPRESENTATION_CONTEXT(3)
GLOBAL_UNCERTAINTY_ASSIGNED_CONTEXT((#516))
GLOBAL_UNIT_ASSIGNED_CONTEXT((#519,#518,#517))
REPRESENTATION_CONTEXT('corps_paveB','TOP_LEVEL_ASSEMBLY_PART')
);
#516=UNCERTAINTY_MEASURE_WITH_UNIT(LENGTH_MEASURE(5.E-6),#519,
'DISTANCE_ACCURACY_VALUE','Maximum Tolerance applied to model');
#517=(
NAMED_UNIT(*)
SI_UNIT($,.STERADIAN.)
SOLID_ANGLE_UNIT()
);
#518=(
NAMED_UNIT(*)
PLANE_ANGLE_UNIT()
SI_UNIT($,.RADIAN.)
);
#519=(
LENGTH_UNIT()
NAMED_UNIT(*)
SI_UNIT($,.METRE.)
);
#520=PRODUCT_DEFINITION_SHAPE('','',#521);
#521=PRODUCT_DEFINITION('','',#523,#522);
#522=PRODUCT_DEFINITION_CONTEXT('',#529,'design');
#523=PRODUCT_DEFINITION_FORMATION_WITH_SPECIFIED_SOURCE('','',#525,
 .NOT_KNOWN.);
#524=PRODUCT_RELATED_PRODUCT_CATEGORY('','',(#525));
#525=PRODUCT('corps_paveB','corps_paveB','corps_paveB',(#527));
#526=PRODUCT_CATEGORY('','');
#527=PRODUCT_CONTEXT('',#529,'mechanical');
#528=APPLICATION_PROTOCOL_DEFINITION('international standard',
'ap242_managed_model_based_3d_engineering',2011,#529);
#529=APPLICATION_CONTEXT('managed model based 3d engineering');
ENDSEC;
END-ISO-10303-21;
