ISO-10303-21;
HEADER;
FILE_DESCRIPTION(('STEP AP214'),'1');
FILE_NAME('axe pivot RDJ.stp','2024-03-22T14:32:31',(' '),(' '),'Spatial InterOp 3D',' ',' ');
FILE_SCHEMA(('AUTOMOTIVE_DESIGN { 1 0 10303 214 1 1 1 1 }'));
ENDSEC;
DATA;
#1=MECHANICAL_DESIGN_GEOMETRIC_PRESENTATION_REPRESENTATION(' ',(#58,#59,#60,#61,#62,#63,#64,#65,#66,#67,#68,#69,#70,#71),#6);
#2=PRODUCT_DEFINITION_CONTEXT('',#72,'design');
#3=APPLICATION_PROTOCOL_DEFINITION('INTERNATIONAL STANDARD','automotive_design',1994,#72);
#4=PRODUCT_CATEGORY_RELATIONSHIP('NONE','NONE',#73,#74);
#5=SHAPE_DEFINITION_REPRESENTATION(#75,#76);
#6= (GEOMETRIC_REPRESENTATION_CONTEXT(3)GLOBAL_UNCERTAINTY_ASSIGNED_CONTEXT((#79))GLOBAL_UNIT_ASSIGNED_CONTEXT((#81,#82,#83))REPRESENTATION_CONTEXT('NONE','WORKSPACE'));
#7=PROPERTY_DEFINITION_REPRESENTATION(#85,#86);
#8=GENERAL_PROPERTY_ASSOCIATION('','',#87,#85);
#9=PROPERTY_DEFINITION_REPRESENTATION(#88,#89);
#10=GENERAL_PROPERTY_ASSOCIATION('','',#90,#88);
#11=PROPERTY_DEFINITION_REPRESENTATION(#91,#92);
#12=GENERAL_PROPERTY_ASSOCIATION('','',#93,#91);
#13=PROPERTY_DEFINITION_REPRESENTATION(#94,#95);
#14=GENERAL_PROPERTY_ASSOCIATION('','',#96,#94);
#15=PROPERTY_DEFINITION_REPRESENTATION(#97,#98);
#16=GENERAL_PROPERTY_ASSOCIATION('','',#99,#97);
#17=PROPERTY_DEFINITION_REPRESENTATION(#100,#101);
#18=GENERAL_PROPERTY_ASSOCIATION('','',#102,#100);
#19=PROPERTY_DEFINITION_REPRESENTATION(#103,#104);
#20=GENERAL_PROPERTY_ASSOCIATION('','',#105,#103);
#21=PROPERTY_DEFINITION_REPRESENTATION(#106,#107);
#22=GENERAL_PROPERTY_ASSOCIATION('','',#108,#106);
#23=PROPERTY_DEFINITION_REPRESENTATION(#109,#110);
#24=GENERAL_PROPERTY_ASSOCIATION('','',#111,#109);
#25=PROPERTY_DEFINITION_REPRESENTATION(#112,#113);
#26=GENERAL_PROPERTY_ASSOCIATION('','',#114,#112);
#27=PROPERTY_DEFINITION_REPRESENTATION(#115,#116);
#28=GENERAL_PROPERTY_ASSOCIATION('','',#117,#115);
#29=PROPERTY_DEFINITION_REPRESENTATION(#118,#119);
#30=GENERAL_PROPERTY_ASSOCIATION('','',#120,#118);
#31=PROPERTY_DEFINITION_REPRESENTATION(#121,#122);
#32=GENERAL_PROPERTY_ASSOCIATION('','',#123,#121);
#33=PROPERTY_DEFINITION_REPRESENTATION(#124,#125);
#34=GENERAL_PROPERTY_ASSOCIATION('','',#126,#124);
#35=PROPERTY_DEFINITION_REPRESENTATION(#127,#128);
#36=GENERAL_PROPERTY_ASSOCIATION('','',#129,#127);
#37=PROPERTY_DEFINITION_REPRESENTATION(#130,#131);
#38=GENERAL_PROPERTY_ASSOCIATION('','',#132,#130);
#39=PROPERTY_DEFINITION_REPRESENTATION(#133,#134);
#40=GENERAL_PROPERTY_ASSOCIATION('','',#135,#133);
#41=PROPERTY_DEFINITION_REPRESENTATION(#136,#137);
#42=GENERAL_PROPERTY_ASSOCIATION('','',#138,#136);
#43=PROPERTY_DEFINITION_REPRESENTATION(#139,#140);
#44=GENERAL_PROPERTY_ASSOCIATION('','',#141,#139);
#45=PROPERTY_DEFINITION_REPRESENTATION(#142,#143);
#46=GENERAL_PROPERTY_ASSOCIATION('','',#144,#142);
#47=PROPERTY_DEFINITION_REPRESENTATION(#145,#146);
#48=GENERAL_PROPERTY_ASSOCIATION('','',#147,#145);
#49=PROPERTY_DEFINITION_REPRESENTATION(#148,#149);
#50=GENERAL_PROPERTY_ASSOCIATION('','',#150,#148);
#51=PROPERTY_DEFINITION_REPRESENTATION(#151,#152);
#52=GENERAL_PROPERTY_ASSOCIATION('','',#153,#151);
#53=PROPERTY_DEFINITION_REPRESENTATION(#154,#155);
#54=GENERAL_PROPERTY_ASSOCIATION('','',#156,#154);
#58=STYLED_ITEM('',(#157),#158);
#59=STYLED_ITEM('',(#159),#160);
#60=STYLED_ITEM('',(#161),#162);
#61=STYLED_ITEM('',(#163),#164);
#62=STYLED_ITEM('',(#165),#166);
#63=STYLED_ITEM('',(#167),#168);
#64=STYLED_ITEM('',(#169),#170);
#65=STYLED_ITEM('',(#171),#172);
#66=STYLED_ITEM('',(#173),#174);
#67=STYLED_ITEM('',(#175),#176);
#68=STYLED_ITEM('',(#177),#178);
#69=STYLED_ITEM('',(#179),#180);
#70=STYLED_ITEM('',(#181),#182);
#71=STYLED_ITEM('',(#183),#184);
#72=APPLICATION_CONTEXT(' ');
#73=PRODUCT_CATEGORY('part','NONE');
#74=PRODUCT_RELATED_PRODUCT_CATEGORY('detail',' ',(#185));
#75=PRODUCT_DEFINITION_SHAPE('NONE','NONE',#186);
#76=ADVANCED_BREP_SHAPE_REPRESENTATION('axe pivot RDJ',(#184,#187),#6);
#79=UNCERTAINTY_MEASURE_WITH_UNIT(LENGTH_MEASURE(0.001),#81,'','');
#81= (CONVERSION_BASED_UNIT('MILLIMETRE',#190)LENGTH_UNIT()NAMED_UNIT(#193));
#82= (NAMED_UNIT(#195)PLANE_ANGLE_UNIT()SI_UNIT($,.RADIAN.));
#83= (NAMED_UNIT(#195)SOLID_ANGLE_UNIT()SI_UNIT($,.STERADIAN.));
#85=PROPERTY_DEFINITION('PdmObjectId','',#186);
#86=REPRESENTATION('',(#201),#6);
#87=GENERAL_PROPERTY('','PdmObjectId','');
#88=PROPERTY_DEFINITION('Type de Production','',#186);
#89=REPRESENTATION('',(#202),#6);
#90=GENERAL_PROPERTY('','Type de Production','');
#91=PROPERTY_DEFINITION('Nom','',#186);
#92=REPRESENTATION('',(#203),#6);
#93=GENERAL_PROPERTY('','Nom','');
#94=PROPERTY_DEFINITION('Type de brut','',#186);
#95=REPRESENTATION('',(#204),#6);
#96=GENERAL_PROPERTY('','Type de brut','');
#97=PROPERTY_DEFINITION('Dimensions du brut','',#186);
#98=REPRESENTATION('',(#205),#6);
#99=GENERAL_PROPERTY('','Dimensions du brut','');
#100=PROPERTY_DEFINITION('Nom du brut','',#186);
#101=REPRESENTATION('',(#206),#6);
#102=GENERAL_PROPERTY('','Nom du brut','');
#103=PROPERTY_DEFINITION('D\X2\00E9\X0\signation du brut','',#186);
#104=REPRESENTATION('',(#207),#6);
#105=GENERAL_PROPERTY('','D\X2\00E9\X0\signation du brut','');
#106=PROPERTY_DEFINITION('R\X2\00E9\X0\f\X2\00E9\X0\rence du brut','',#186);
#107=REPRESENTATION('',(#208),#6);
#108=GENERAL_PROPERTY('','R\X2\00E9\X0\f\X2\00E9\X0\rence du brut','');
#109=PROPERTY_DEFINITION('R\X2\00E9\X0\vision majeure du brut','',#186);
#110=REPRESENTATION('',(#209),#6);
#111=GENERAL_PROPERTY('','R\X2\00E9\X0\vision majeure du brut','');
#112=PROPERTY_DEFINITION('D\X2\00E9\X0\signation de la r\X2\00E8\X0\gle de mise \X2\00E0\X0\ plat','',#186);
#113=REPRESENTATION('',(#210),#6);
#114=GENERAL_PROPERTY('','D\X2\00E9\X0\signation de la r\X2\00E8\X0\gle de mise \X2\00E0\X0\ plat','');
#115=PROPERTY_DEFINITION('R\X2\00E9\X0\f\X2\00E9\X0\rence de la r\X2\00E8\X0\gle de mise \X2\00E0\X0\ plat','',#186);
#116=REPRESENTATION('',(#211),#6);
#117=GENERAL_PROPERTY('','R\X2\00E9\X0\f\X2\00E9\X0\rence de la r\X2\00E8\X0\gle de mise \X2\00E0\X0\ plat','');
#118=PROPERTY_DEFINITION('Outil de pliage','',#186);
#119=REPRESENTATION('',(#212),#6);
#120=GENERAL_PROPERTY('','Outil de pliage','');
#121=PROPERTY_DEFINITION('D\X2\00E9\X0\signation du mat\X2\00E9\X0\riau','',#186);
#122=REPRESENTATION('',(#213),#6);
#123=GENERAL_PROPERTY('','D\X2\00E9\X0\signation du mat\X2\00E9\X0\riau','');
#124=PROPERTY_DEFINITION('Nom du mat\X2\00E9\X0\riau','',#186);
#125=REPRESENTATION('',(#214),#6);
#126=GENERAL_PROPERTY('','Nom du mat\X2\00E9\X0\riau','');
#127=PROPERTY_DEFINITION('BrutFinal','',#186);
#128=REPRESENTATION('',(#215),#6);
#129=GENERAL_PROPERTY('','BrutFinal','');
#130=PROPERTY_DEFINITION('BrutCylindrique','',#186);
#131=REPRESENTATION('',(#216),#6);
#132=GENERAL_PROPERTY('','BrutCylindrique','');
#133=PROPERTY_DEFINITION('Diam\X2\00E8\X0\treCylindreFormat\X2\00E9\X0\','',#186);
#134=REPRESENTATION('',(#217),#6);
#135=GENERAL_PROPERTY('','Diam\X2\00E8\X0\treCylindreFormat\X2\00E9\X0\','');
#136=PROPERTY_DEFINITION('LongueurCylindreFormat\X2\00E9\X0\','',#186);
#137=REPRESENTATION('',(#218),#6);
#138=GENERAL_PROPERTY('','LongueurCylindreFormat\X2\00E9\X0\','');
#139=PROPERTY_DEFINITION('BrutRectangulaire','',#186);
#140=REPRESENTATION('',(#219),#6);
#141=GENERAL_PROPERTY('','BrutRectangulaire','');
#142=PROPERTY_DEFINITION('TailleXBoiteFormat\X2\00E9\X0\','',#186);
#143=REPRESENTATION('',(#220),#6);
#144=GENERAL_PROPERTY('','TailleXBoiteFormat\X2\00E9\X0\','');
#145=PROPERTY_DEFINITION('TailleYBoiteFormat\X2\00E9\X0\','',#186);
#146=REPRESENTATION('',(#221),#6);
#147=GENERAL_PROPERTY('','TailleYBoiteFormat\X2\00E9\X0\','');
#148=PROPERTY_DEFINITION('TailleZBoiteFormat\X2\00E9\X0\','',#186);
#149=REPRESENTATION('',(#222),#6);
#150=GENERAL_PROPERTY('','TailleZBoiteFormat\X2\00E9\X0\','');
#151=PROPERTY_DEFINITION('CreationDate','',#186);
#152=REPRESENTATION('',(#223),#6);
#153=GENERAL_PROPERTY('','CreationDate','');
#154=PROPERTY_DEFINITION('Minor Revision','',#186);
#155=REPRESENTATION('',(#224),#6);
#156=GENERAL_PROPERTY('','Minor Revision','');
#157=PRESENTATION_STYLE_ASSIGNMENT((#225));
#158=ADVANCED_FACE('',(#226,#227),#228,.T.);
#159=PRESENTATION_STYLE_ASSIGNMENT((#229));
#160=ADVANCED_FACE('',(#230,#231),#232,.F.);
#161=PRESENTATION_STYLE_ASSIGNMENT((#233));
#162=ADVANCED_FACE('',(#234,#235),#236,.T.);
#163=PRESENTATION_STYLE_ASSIGNMENT((#237));
#164=ADVANCED_FACE('',(#238,#239),#240,.T.);
#165=PRESENTATION_STYLE_ASSIGNMENT((#241));
#166=ADVANCED_FACE('',(#242),#243,.T.);
#167=PRESENTATION_STYLE_ASSIGNMENT((#244));
#168=ADVANCED_FACE('',(#245,#246),#247,.T.);
#169=PRESENTATION_STYLE_ASSIGNMENT((#248));
#170=ADVANCED_FACE('',(#249,#250),#251,.T.);
#171=PRESENTATION_STYLE_ASSIGNMENT((#252));
#172=ADVANCED_FACE('',(#253),#254,.T.);
#173=PRESENTATION_STYLE_ASSIGNMENT((#255));
#174=ADVANCED_FACE('',(#256,#257),#258,.F.);
#175=PRESENTATION_STYLE_ASSIGNMENT((#259));
#176=ADVANCED_FACE('',(#260,#261),#262,.T.);
#177=PRESENTATION_STYLE_ASSIGNMENT((#263));
#178=ADVANCED_FACE('',(#264,#265),#266,.F.);
#179=PRESENTATION_STYLE_ASSIGNMENT((#267));
#180=ADVANCED_FACE('',(#268,#269),#270,.F.);
#181=PRESENTATION_STYLE_ASSIGNMENT((#271));
#182=ADVANCED_FACE('',(#272,#273),#274,.T.);
#183=PRESENTATION_STYLE_ASSIGNMENT((#275));
#184=MANIFOLD_SOLID_BREP('axe pivot RDJ',#276);
#185=PRODUCT('axe pivot RDJ','FAA86.01','axe pivot RDJ',(#277));
#186=PRODUCT_DEFINITION('','NONE',#278,#2);
#187=AXIS2_PLACEMENT_3D('',#279,#280,#281);
#190=LENGTH_MEASURE_WITH_UNIT(LENGTH_MEASURE(1.0),#282);
#193=DIMENSIONAL_EXPONENTS(1.0,0.0,0.0,0.0,0.0,0.0,0.0);
#195=DIMENSIONAL_EXPONENTS(0.0,0.0,0.0,0.0,0.0,0.0,0.0);
#201=DESCRIPTIVE_REPRESENTATION_ITEM('','37_0ef236cb-60a4-4005-b067-a9df14cffd4f&2_193_2_109');
#202=DESCRIPTIVE_REPRESENTATION_ITEM('','Usinage');
#203=DESCRIPTIVE_REPRESENTATION_ITEM('','axe pivot RDJ');
#204=DESCRIPTIVE_REPRESENTATION_ITEM('','Non classifi\X2\00E9\X0\');
#205=DESCRIPTIVE_REPRESENTATION_ITEM('','');
#206=DESCRIPTIVE_REPRESENTATION_ITEM('','-');
#207=DESCRIPTIVE_REPRESENTATION_ITEM('','-');
#208=DESCRIPTIVE_REPRESENTATION_ITEM('','');
#209=DESCRIPTIVE_REPRESENTATION_ITEM('','');
#210=DESCRIPTIVE_REPRESENTATION_ITEM('','Taleau pliage');
#211=DESCRIPTIVE_REPRESENTATION_ITEM('','');
#212=DESCRIPTIVE_REPRESENTATION_ITEM('','<non sp\X2\00E9\X0\cifi\X2\00E9\X0\>');
#213=DESCRIPTIVE_REPRESENTATION_ITEM('','Acier E335 EN 10278');
#214=DESCRIPTIVE_REPRESENTATION_ITEM('','Acier E335 EN 10278');
#215=DESCRIPTIVE_REPRESENTATION_ITEM('','-');
#216=DESCRIPTIVE_REPRESENTATION_ITEM('','\X2\00D8\X0\ 35,00 \X2\00D7\X0\ 140,00');
#217=DESCRIPTIVE_REPRESENTATION_ITEM('','35,00');
#218=DESCRIPTIVE_REPRESENTATION_ITEM('','140,00');
#219=DESCRIPTIVE_REPRESENTATION_ITEM('','140,00 \X2\00D7\X0\ 35,00 \X2\00D7\X0\ 35,00');
#220=DESCRIPTIVE_REPRESENTATION_ITEM('','140,00');
#221=DESCRIPTIVE_REPRESENTATION_ITEM('','35,00');
#222=DESCRIPTIVE_REPRESENTATION_ITEM('','35,00');
#223=DESCRIPTIVE_REPRESENTATION_ITEM('','13/10/2022 06:40:05');
#224=DESCRIPTIVE_REPRESENTATION_ITEM('','20');
#225=SURFACE_STYLE_USAGE(.BOTH.,#283);
#226=FACE_OUTER_BOUND('',#284,.T.);
#227=FACE_OUTER_BOUND('',#285,.T.);
#228=CYLINDRICAL_SURFACE('',#286,14.3);
#229=SURFACE_STYLE_USAGE(.BOTH.,#287);
#230=FACE_OUTER_BOUND('',#288,.T.);
#231=FACE_BOUND('',#289,.T.);
#232=PLANE('',#290);
#233=SURFACE_STYLE_USAGE(.BOTH.,#291);
#234=FACE_OUTER_BOUND('',#292,.T.);
#235=FACE_OUTER_BOUND('',#293,.T.);
#236=CYLINDRICAL_SURFACE('',#294,15.0);
#237=SURFACE_STYLE_USAGE(.BOTH.,#295);
#238=FACE_OUTER_BOUND('',#296,.T.);
#239=FACE_OUTER_BOUND('',#297,.T.);
#240=CYLINDRICAL_SURFACE('',#298,15.0);
#241=SURFACE_STYLE_USAGE(.BOTH.,#299);
#242=FACE_OUTER_BOUND('',#300,.T.);
#243=PLANE('',#301);
#244=SURFACE_STYLE_USAGE(.BOTH.,#302);
#245=FACE_OUTER_BOUND('',#303,.T.);
#246=FACE_OUTER_BOUND('',#304,.T.);
#247=CYLINDRICAL_SURFACE('',#305,15.0);
#248=SURFACE_STYLE_USAGE(.BOTH.,#306);
#249=FACE_BOUND('',#307,.T.);
#250=FACE_OUTER_BOUND('',#308,.T.);
#251=CONICAL_SURFACE('',#309,15.0,0.785398163397448);
#252=SURFACE_STYLE_USAGE(.BOTH.,#310);
#253=FACE_OUTER_BOUND('',#311,.T.);
#254=PLANE('',#312);
#255=SURFACE_STYLE_USAGE(.BOTH.,#313);
#256=FACE_BOUND('',#314,.T.);
#257=FACE_OUTER_BOUND('',#315,.T.);
#258=PLANE('',#316);
#259=SURFACE_STYLE_USAGE(.BOTH.,#317);
#260=FACE_OUTER_BOUND('',#318,.T.);
#261=FACE_OUTER_BOUND('',#319,.T.);
#262=CYLINDRICAL_SURFACE('',#320,14.3);
#263=SURFACE_STYLE_USAGE(.BOTH.,#321);
#264=FACE_OUTER_BOUND('',#322,.T.);
#265=FACE_BOUND('',#323,.T.);
#266=PLANE('',#324);
#267=SURFACE_STYLE_USAGE(.BOTH.,#325);
#268=FACE_BOUND('',#326,.T.);
#269=FACE_OUTER_BOUND('',#327,.T.);
#270=PLANE('',#328);
#271=SURFACE_STYLE_USAGE(.BOTH.,#329);
#272=FACE_BOUND('',#330,.T.);
#273=FACE_OUTER_BOUND('',#331,.T.);
#274=CONICAL_SURFACE('',#332,15.0,0.785398163397448);
#275=SURFACE_STYLE_USAGE(.BOTH.,#333);
#276=CLOSED_SHELL('',(#158,#160,#162,#164,#166,#168,#170,#172,#174,#176,#178,#180,#182));
#277=PRODUCT_CONTEXT('',#72,'mechanical');
#278=PRODUCT_DEFINITION_FORMATION_WITH_SPECIFIED_SOURCE('C','NONE',#185,.NOT_KNOWN.);
#279=CARTESIAN_POINT('',(0.0,0.0,0.0));
#280=DIRECTION('',(0.0,0.0,1.0));
#281=DIRECTION('',(1.0,0.0,0.0));
#282= (NAMED_UNIT(#193)LENGTH_UNIT()SI_UNIT(.MILLI.,.METRE.));
#283=SURFACE_SIDE_STYLE('',(#335));
#284=EDGE_LOOP('',(#336));
#285=EDGE_LOOP('',(#337));
#286=AXIS2_PLACEMENT_3D('',#338,#339,#340);
#287=SURFACE_SIDE_STYLE('',(#341));
#288=EDGE_LOOP('',(#342));
#289=EDGE_LOOP('',(#343));
#290=AXIS2_PLACEMENT_3D('',#344,#345,#346);
#291=SURFACE_SIDE_STYLE('',(#347));
#292=EDGE_LOOP('',(#348));
#293=EDGE_LOOP('',(#349));
#294=AXIS2_PLACEMENT_3D('',#350,#351,#352);
#295=SURFACE_SIDE_STYLE('',(#353));
#296=EDGE_LOOP('',(#354));
#297=EDGE_LOOP('',(#355));
#298=AXIS2_PLACEMENT_3D('',#356,#357,#358);
#299=SURFACE_SIDE_STYLE('',(#359));
#300=EDGE_LOOP('',(#360));
#301=AXIS2_PLACEMENT_3D('',#361,#362,#363);
#302=SURFACE_SIDE_STYLE('',(#364));
#303=EDGE_LOOP('',(#365));
#304=EDGE_LOOP('',(#366));
#305=AXIS2_PLACEMENT_3D('',#367,#368,#369);
#306=SURFACE_SIDE_STYLE('',(#370));
#307=EDGE_LOOP('',(#371));
#308=EDGE_LOOP('',(#372));
#309=AXIS2_PLACEMENT_3D('',#373,#374,#375);
#310=SURFACE_SIDE_STYLE('',(#376));
#311=EDGE_LOOP('',(#377));
#312=AXIS2_PLACEMENT_3D('',#378,#379,#380);
#313=SURFACE_SIDE_STYLE('',(#381));
#314=EDGE_LOOP('',(#382));
#315=EDGE_LOOP('',(#383));
#316=AXIS2_PLACEMENT_3D('',#384,#385,#386);
#317=SURFACE_SIDE_STYLE('',(#387));
#318=EDGE_LOOP('',(#388));
#319=EDGE_LOOP('',(#389));
#320=AXIS2_PLACEMENT_3D('',#390,#391,#392);
#321=SURFACE_SIDE_STYLE('',(#393));
#322=EDGE_LOOP('',(#394));
#323=EDGE_LOOP('',(#395));
#324=AXIS2_PLACEMENT_3D('',#396,#397,#398);
#325=SURFACE_SIDE_STYLE('',(#399));
#326=EDGE_LOOP('',(#400));
#327=EDGE_LOOP('',(#401));
#328=AXIS2_PLACEMENT_3D('',#402,#403,#404);
#329=SURFACE_SIDE_STYLE('',(#405));
#330=EDGE_LOOP('',(#406));
#331=EDGE_LOOP('',(#407));
#332=AXIS2_PLACEMENT_3D('',#408,#409,#410);
#333=SURFACE_SIDE_STYLE('',(#411));
#335=SURFACE_STYLE_FILL_AREA(#412);
#336=ORIENTED_EDGE('',*,*,#413,.T.);
#337=ORIENTED_EDGE('',*,*,#414,.F.);
#338=CARTESIAN_POINT('',(-3.46737418971779E-14,-5.09802837546462E-17,-61.0));
#339=DIRECTION('',(1.38184149055105E-17,-3.39868558364308E-17,-1.0));
#340=DIRECTION('',(-0.147897841293772,-0.989002643343607,3.15693765265415E-17));
#341=SURFACE_STYLE_FILL_AREA(#415);
#342=ORIENTED_EDGE('',*,*,#416,.T.);
#343=ORIENTED_EDGE('',*,*,#413,.F.);
#344=CARTESIAN_POINT('',(14.4888887249838,-2.16670337495377,-61.1));
#345=DIRECTION('',(1.38184149055105E-17,-3.39868558364308E-17,-1.0));
#346=DIRECTION('',(-0.147897841293772,-0.989002643343607,3.15693765265415E-17));
#347=SURFACE_STYLE_FILL_AREA(#417);
#348=ORIENTED_EDGE('',*,*,#418,.T.);
#349=ORIENTED_EDGE('',*,*,#419,.F.);
#350=CARTESIAN_POINT('',(0.0,0.0,-67.5));
#351=DIRECTION('',(0.0,0.0,1.0));
#352=DIRECTION('',(1.0,0.0,0.0));
#353=SURFACE_STYLE_FILL_AREA(#420);
#354=ORIENTED_EDGE('',*,*,#421,.T.);
#355=ORIENTED_EDGE('',*,*,#422,.T.);
#356=CARTESIAN_POINT('',(0.0,0.0,-67.5));
#357=DIRECTION('',(0.0,0.0,1.0));
#358=DIRECTION('',(1.0,0.0,0.0));
#359=SURFACE_STYLE_FILL_AREA(#423);
#360=ORIENTED_EDGE('',*,*,#424,.T.);
#361=CARTESIAN_POINT('',(0.0,0.0,67.5));
#362=DIRECTION('',(0.0,0.0,1.0));
#363=DIRECTION('',(1.0,0.0,0.0));
#364=SURFACE_STYLE_FILL_AREA(#425);
#365=ORIENTED_EDGE('',*,*,#416,.F.);
#366=ORIENTED_EDGE('',*,*,#426,.T.);
#367=CARTESIAN_POINT('',(0.0,0.0,-67.5));
#368=DIRECTION('',(0.0,0.0,1.0));
#369=DIRECTION('',(1.0,0.0,0.0));
#370=SURFACE_STYLE_FILL_AREA(#427);
#371=ORIENTED_EDGE('',*,*,#428,.F.);
#372=ORIENTED_EDGE('',*,*,#426,.F.);
#373=CARTESIAN_POINT('',(0.0,0.0,-66.5));
#374=DIRECTION('',(-0.0,-0.0,1.0));
#375=DIRECTION('',(1.0,0.0,0.0));
#376=SURFACE_STYLE_FILL_AREA(#429);
#377=ORIENTED_EDGE('',*,*,#428,.T.);
#378=CARTESIAN_POINT('',(0.0,0.0,-67.5));
#379=DIRECTION('',(0.0,0.0,-1.0));
#380=DIRECTION('',(-1.0,0.0,0.0));
#381=SURFACE_STYLE_FILL_AREA(#430);
#382=ORIENTED_EDGE('',*,*,#414,.T.);
#383=ORIENTED_EDGE('',*,*,#418,.F.);
#384=CARTESIAN_POINT('',(14.4888887249838,-2.16670337495377,-59.5));
#385=DIRECTION('',(-1.38184149055105E-17,3.39868558364308E-17,1.0));
#386=DIRECTION('',(0.147897841293772,0.989002643343607,-3.15693765265415E-17));
#387=SURFACE_STYLE_FILL_AREA(#431);
#388=ORIENTED_EDGE('',*,*,#432,.F.);
#389=ORIENTED_EDGE('',*,*,#433,.T.);
#390=CARTESIAN_POINT('',(-2.77721414254409E-14,9.22156275172673E-18,61.0));
#391=DIRECTION('',(-1.10438732080216E-17,6.14770850115115E-18,1.0));
#392=DIRECTION('',(-0.147897841293772,-0.989002643343607,4.44673495115593E-18));
#393=SURFACE_STYLE_FILL_AREA(#434);
#394=ORIENTED_EDGE('',*,*,#421,.F.);
#395=ORIENTED_EDGE('',*,*,#432,.T.);
#396=CARTESIAN_POINT('',(14.4888887249838,-2.16670337495377,61.1));
#397=DIRECTION('',(-1.10438732080216E-17,6.14770850115115E-18,1.0));
#398=DIRECTION('',(-0.147897841293772,-0.989002643343607,4.44673495115593E-18));
#399=SURFACE_STYLE_FILL_AREA(#435);
#400=ORIENTED_EDGE('',*,*,#433,.F.);
#401=ORIENTED_EDGE('',*,*,#419,.T.);
#402=CARTESIAN_POINT('',(14.4888887249838,-2.16670337495377,59.5));
#403=DIRECTION('',(1.10438732080216E-17,-6.14770850115115E-18,-1.0));
#404=DIRECTION('',(0.147897841293772,0.989002643343607,-4.44673495115593E-18));
#405=SURFACE_STYLE_FILL_AREA(#436);
#406=ORIENTED_EDGE('',*,*,#424,.F.);
#407=ORIENTED_EDGE('',*,*,#422,.F.);
#408=CARTESIAN_POINT('',(0.0,0.0,66.5));
#409=DIRECTION('',(-0.0,0.0,-1.0));
#410=DIRECTION('',(-1.0,0.0,0.0));
#411=SURFACE_STYLE_FILL_AREA(#437);
#412=FILL_AREA_STYLE('',(#438));
#413=EDGE_CURVE('',#439,#439,#440,.T.);
#414=EDGE_CURVE('',#441,#441,#442,.T.);
#415=FILL_AREA_STYLE('',(#443));
#416=EDGE_CURVE('',#444,#444,#445,.T.);
#417=FILL_AREA_STYLE('',(#446));
#418=EDGE_CURVE('',#447,#447,#448,.T.);
#419=EDGE_CURVE('',#449,#449,#450,.T.);
#420=FILL_AREA_STYLE('',(#451));
#421=EDGE_CURVE('',#452,#452,#453,.T.);
#422=EDGE_CURVE('',#454,#454,#455,.F.);
#423=FILL_AREA_STYLE('',(#456));
#424=EDGE_CURVE('',#457,#457,#458,.T.);
#425=FILL_AREA_STYLE('',(#459));
#426=EDGE_CURVE('',#460,#460,#461,.F.);
#427=FILL_AREA_STYLE('',(#462));
#428=EDGE_CURVE('',#463,#463,#464,.T.);
#429=FILL_AREA_STYLE('',(#465));
#430=FILL_AREA_STYLE('',(#466));
#431=FILL_AREA_STYLE('',(#467));
#432=EDGE_CURVE('',#468,#468,#469,.T.);
#433=EDGE_CURVE('',#470,#470,#471,.T.);
#434=FILL_AREA_STYLE('',(#472));
#435=FILL_AREA_STYLE('',(#473));
#436=FILL_AREA_STYLE('',(#474));
#437=FILL_AREA_STYLE('',(#475));
#438=FILL_AREA_STYLE_COLOUR('',#476);
#439=VERTEX_POINT('',#477);
#440=CIRCLE('',#478,14.3);
#441=VERTEX_POINT('',#479);
#442=CIRCLE('',#480,14.3);
#443=FILL_AREA_STYLE_COLOUR('',#481);
#444=VERTEX_POINT('',#482);
#445=CIRCLE('',#483,15.0);
#446=FILL_AREA_STYLE_COLOUR('',#484);
#447=VERTEX_POINT('',#485);
#448=CIRCLE('',#486,15.0);
#449=VERTEX_POINT('',#487);
#450=CIRCLE('',#488,15.0);
#451=FILL_AREA_STYLE_COLOUR('',#489);
#452=VERTEX_POINT('',#490);
#453=CIRCLE('',#491,15.0);
#454=VERTEX_POINT('',#492);
#455=CIRCLE('',#493,15.0);
#456=FILL_AREA_STYLE_COLOUR('',#494);
#457=VERTEX_POINT('',#495);
#458=CIRCLE('',#496,14.0);
#459=FILL_AREA_STYLE_COLOUR('',#497);
#460=VERTEX_POINT('',#498);
#461=CIRCLE('',#499,15.0);
#462=FILL_AREA_STYLE_COLOUR('',#500);
#463=VERTEX_POINT('',#501);
#464=CIRCLE('',#502,14.0);
#465=FILL_AREA_STYLE_COLOUR('',#503);
#466=FILL_AREA_STYLE_COLOUR('',#504);
#467=FILL_AREA_STYLE_COLOUR('',#505);
#468=VERTEX_POINT('',#506);
#469=CIRCLE('',#507,14.3);
#470=VERTEX_POINT('',#508);
#471=CIRCLE('',#509,14.3);
#472=FILL_AREA_STYLE_COLOUR('',#510);
#473=FILL_AREA_STYLE_COLOUR('',#511);
#474=FILL_AREA_STYLE_COLOUR('',#512);
#475=FILL_AREA_STYLE_COLOUR('',#513);
#476=COLOUR_RGB('',0.752941191196442,0.752941191196442,0.752941191196442);
#477=CARTESIAN_POINT('',(-2.11493913050098,-14.1427377998136,-61.1));
#478=AXIS2_PLACEMENT_3D('',#514,#515,#516);
#479=CARTESIAN_POINT('',(-2.11493913050098,-14.1427377998136,-59.5));
#480=AXIS2_PLACEMENT_3D('',#517,#518,#519);
#481=COLOUR_RGB('',0.752941191196442,0.752941191196442,0.752941191196442);
#482=CARTESIAN_POINT('',(-2.21846761940662,-14.8350396501541,-61.1));
#483=AXIS2_PLACEMENT_3D('',#520,#521,#522);
#484=COLOUR_RGB('',0.752941191196442,0.752941191196442,0.752941191196442);
#485=CARTESIAN_POINT('',(-2.21846761940662,-14.8350396501541,-59.5));
#486=AXIS2_PLACEMENT_3D('',#523,#524,#525);
#487=CARTESIAN_POINT('',(-2.21846761940661,-14.8350396501541,59.5));
#488=AXIS2_PLACEMENT_3D('',#526,#527,#528);
#489=COLOUR_RGB('',0.752941191196442,0.752941191196442,0.752941191196442);
#490=CARTESIAN_POINT('',(-2.21846761940661,-14.8350396501541,61.1));
#491=AXIS2_PLACEMENT_3D('',#529,#530,#531);
#492=CARTESIAN_POINT('',(15.0,-3.67394039744206E-15,66.5));
#493=AXIS2_PLACEMENT_3D('',#532,#533,#534);
#494=COLOUR_RGB('',0.752941191196442,0.752941191196442,0.752941191196442);
#495=CARTESIAN_POINT('',(14.0,0.0,67.5));
#496=AXIS2_PLACEMENT_3D('',#535,#536,#537);
#497=COLOUR_RGB('',0.752941191196442,0.752941191196442,0.752941191196442);
#498=CARTESIAN_POINT('',(-15.0,-3.67394039744206E-15,-66.5));
#499=AXIS2_PLACEMENT_3D('',#538,#539,#540);
#500=COLOUR_RGB('',0.752941191196442,0.752941191196442,0.752941191196442);
#501=CARTESIAN_POINT('',(-14.0,0.0,-67.5));
#502=AXIS2_PLACEMENT_3D('',#541,#542,#543);
#503=COLOUR_RGB('',0.752941191196442,0.752941191196442,0.752941191196442);
#504=COLOUR_RGB('',0.752941191196442,0.752941191196442,0.752941191196442);
#505=COLOUR_RGB('',0.752941191196442,0.752941191196442,0.752941191196442);
#506=CARTESIAN_POINT('',(-2.11493913050097,-14.1427377998136,61.1));
#507=AXIS2_PLACEMENT_3D('',#544,#545,#546);
#508=CARTESIAN_POINT('',(-2.11493913050097,-14.1427377998136,59.5));
#509=AXIS2_PLACEMENT_3D('',#547,#548,#549);
#510=COLOUR_RGB('',0.752941191196442,0.752941191196442,0.752941191196442);
#511=COLOUR_RGB('',0.752941191196442,0.752941191196442,0.752941191196442);
#512=COLOUR_RGB('',0.752941191196442,0.752941191196442,0.752941191196442);
#513=COLOUR_RGB('',0.752941191196442,0.752941191196442,0.752941191196442);
#514=CARTESIAN_POINT('',(-3.46723600556873E-14,-5.43789693382893E-17,-61.1));
#515=DIRECTION('',(-1.38184149055105E-17,3.39868558364308E-17,1.0));
#516=DIRECTION('',(-0.147897841293772,-0.989002643343607,3.15693765265415E-17));
#517=CARTESIAN_POINT('',(-3.46944695195361E-14,0.0,-59.5));
#518=DIRECTION('',(-1.38184149055105E-17,3.39868558364308E-17,1.0));
#519=DIRECTION('',(-0.147897841293772,-0.989002643343607,3.15693765265415E-17));
#520=CARTESIAN_POINT('',(-3.46723600556873E-14,-5.43789693382893E-17,-61.1));
#521=DIRECTION('',(-1.38184149055105E-17,3.39868558364308E-17,1.0));
#522=DIRECTION('',(-0.147897841293772,-0.989002643343607,3.15693765265415E-17));
#523=CARTESIAN_POINT('',(-3.46944695195361E-14,0.0,-59.5));
#524=DIRECTION('',(-1.38184149055105E-17,3.39868558364308E-17,1.0));
#525=DIRECTION('',(-0.147897841293772,-0.989002643343607,3.15693765265415E-17));
#526=CARTESIAN_POINT('',(-2.77555756156289E-14,0.0,59.5));
#527=DIRECTION('',(-1.10438732080216E-17,6.14770850115115E-18,1.0));
#528=DIRECTION('',(-0.147897841293772,-0.989002643343607,4.44673495115593E-18));
#529=CARTESIAN_POINT('',(-2.77732458127617E-14,9.83633360184184E-18,61.1));
#530=DIRECTION('',(-1.10438732080216E-17,6.14770850115115E-18,1.0));
#531=DIRECTION('',(-0.147897841293772,-0.989002643343607,4.44673495115593E-18));
#532=CARTESIAN_POINT('',(0.0,0.0,66.5));
#533=DIRECTION('',(0.0,0.0,1.0));
#534=DIRECTION('',(1.0,0.0,0.0));
#535=CARTESIAN_POINT('',(0.0,0.0,67.5));
#536=DIRECTION('',(0.0,0.0,1.0));
#537=DIRECTION('',(1.0,0.0,0.0));
#538=CARTESIAN_POINT('',(0.0,0.0,-66.5));
#539=DIRECTION('',(0.0,0.0,-1.0));
#540=DIRECTION('',(-1.0,0.0,0.0));
#541=CARTESIAN_POINT('',(0.0,0.0,-67.5));
#542=DIRECTION('',(0.0,0.0,-1.0));
#543=DIRECTION('',(-1.0,0.0,0.0));
#544=CARTESIAN_POINT('',(-2.77732458127617E-14,9.83633360184184E-18,61.1));
#545=DIRECTION('',(-1.10438732080216E-17,6.14770850115115E-18,1.0));
#546=DIRECTION('',(-0.147897841293772,-0.989002643343607,4.44673495115593E-18));
#547=CARTESIAN_POINT('',(-2.77555756156289E-14,0.0,59.5));
#548=DIRECTION('',(-1.10438732080216E-17,6.14770850115115E-18,1.0));
#549=DIRECTION('',(-0.147897841293772,-0.989002643343607,4.44673495115593E-18));
ENDSEC;
END-ISO-10303-21;
