ISO-10303-21;
HEADER;
/* Generated by software containing ST-Developer
 * from STEP Tools, Inc. (www.steptools.com) 
 */
/* OPTION: using custom renumber hook */

FILE_DESCRIPTION(
/* description */ ('STEP AP242',
'CAx-IF Rec.Pracs.---Representation and Presentation of Product Manufa
cturing Information (PMI)---4.0---2014-10-13',
'CAx-IF Rec.Pracs.---3D Tessellated Geometry---0.4---2014-09-14','2;1'),

/* implementation_level */ '2;1');

FILE_NAME(
/* name */ '6659870f57ca903dd2465a9e',
/* time_stamp */ '2024-05-31T08:15:12Z',
/* author */ (''),
/* organization */ (''),
/* preprocessor_version */ 'ST-DEVELOPER v20',
/* originating_system */ '  ',
/* authorisation */ '  ');

FILE_SCHEMA (('AP242_MANAGED_MODEL_BASED_3D_ENGINEERING_MIM_LF { 1 0 10303 442 1 1 4 }'));
ENDSEC;

DATA;
#10=SHAPE_REPRESENTATION_RELATIONSHIP('','',#89,#11);
#11=ADVANCED_BREP_SHAPE_REPRESENTATION('',(#87),#149);
#12=PLANE('',#97);
#13=PLANE('',#99);
#14=PLANE('',#102);
#15=ORIENTED_EDGE('',*,*,#27,.T.);
#16=ORIENTED_EDGE('',*,*,#28,.F.);
#17=ORIENTED_EDGE('',*,*,#29,.T.);
#18=ORIENTED_EDGE('',*,*,#30,.F.);
#19=ORIENTED_EDGE('',*,*,#31,.T.);
#20=ORIENTED_EDGE('',*,*,#29,.F.);
#21=ORIENTED_EDGE('',*,*,#27,.F.);
#22=ORIENTED_EDGE('',*,*,#30,.T.);
#23=ORIENTED_EDGE('',*,*,#32,.T.);
#24=ORIENTED_EDGE('',*,*,#31,.F.);
#25=ORIENTED_EDGE('',*,*,#28,.T.);
#26=ORIENTED_EDGE('',*,*,#32,.F.);
#27=EDGE_CURVE('',#33,#33,#39,.T.);
#28=EDGE_CURVE('',#34,#34,#40,.T.);
#29=EDGE_CURVE('',#35,#35,#41,.T.);
#30=EDGE_CURVE('',#36,#36,#42,.T.);
#31=EDGE_CURVE('',#37,#37,#43,.T.);
#32=EDGE_CURVE('',#38,#38,#44,.T.);
#33=VERTEX_POINT('',#132);
#34=VERTEX_POINT('',#134);
#35=VERTEX_POINT('',#137);
#36=VERTEX_POINT('',#139);
#37=VERTEX_POINT('',#142);
#38=VERTEX_POINT('',#146);
#39=CIRCLE('',#92,0.014);
#40=CIRCLE('',#93,0.014);
#41=CIRCLE('',#95,0.0175);
#42=CIRCLE('',#96,0.0175);
#43=CIRCLE('',#98,0.016);
#44=CIRCLE('',#101,0.016);
#45=EDGE_LOOP('',(#15));
#46=EDGE_LOOP('',(#16));
#47=EDGE_LOOP('',(#17));
#48=EDGE_LOOP('',(#18));
#49=EDGE_LOOP('',(#19));
#50=EDGE_LOOP('',(#20));
#51=EDGE_LOOP('',(#21));
#52=EDGE_LOOP('',(#22));
#53=EDGE_LOOP('',(#23));
#54=EDGE_LOOP('',(#24));
#55=EDGE_LOOP('',(#25));
#56=EDGE_LOOP('',(#26));
#57=FACE_BOUND('',#45,.T.);
#58=FACE_BOUND('',#46,.T.);
#59=FACE_BOUND('',#47,.T.);
#60=FACE_BOUND('',#48,.T.);
#61=FACE_BOUND('',#49,.T.);
#62=FACE_BOUND('',#50,.T.);
#63=FACE_BOUND('',#51,.T.);
#64=FACE_BOUND('',#52,.T.);
#65=FACE_BOUND('',#53,.T.);
#66=FACE_BOUND('',#54,.T.);
#67=FACE_BOUND('',#55,.T.);
#68=FACE_BOUND('',#56,.T.);
#69=CYLINDRICAL_SURFACE('',#91,0.014);
#70=CYLINDRICAL_SURFACE('',#94,0.0175);
#71=CYLINDRICAL_SURFACE('',#100,0.016);
#72=ADVANCED_FACE('',(#57,#58),#69,.F.);
#73=ADVANCED_FACE('',(#59,#60),#70,.T.);
#74=ADVANCED_FACE('',(#61,#62),#12,.T.);
#75=ADVANCED_FACE('',(#63,#64),#13,.F.);
#76=ADVANCED_FACE('',(#65,#66),#71,.F.);
#77=ADVANCED_FACE('',(#67,#68),#14,.T.);
#78=CLOSED_SHELL('',(#72,#73,#74,#75,#76,#77));
#79=STYLED_ITEM('',(#80),#87);
#80=PRESENTATION_STYLE_ASSIGNMENT((#81));
#81=SURFACE_STYLE_USAGE(.BOTH.,#82);
#82=SURFACE_SIDE_STYLE('',(#83));
#83=SURFACE_STYLE_FILL_AREA(#84);
#84=FILL_AREA_STYLE('',(#85));
#85=FILL_AREA_STYLE_COLOUR('',#86);
#86=DRAUGHTING_PRE_DEFINED_COLOUR('red');
#87=MANIFOLD_SOLID_BREP('2014.A-Pivot base D',#78);
#88=SHAPE_DEFINITION_REPRESENTATION(#154,#89);
#89=SHAPE_REPRESENTATION('2014.A-Pivot base D',(#90),#149);
#90=AXIS2_PLACEMENT_3D('',#129,#103,#104);
#91=AXIS2_PLACEMENT_3D('',#130,#105,#106);
#92=AXIS2_PLACEMENT_3D('',#131,#107,#108);
#93=AXIS2_PLACEMENT_3D('',#133,#109,#110);
#94=AXIS2_PLACEMENT_3D('',#135,#111,#112);
#95=AXIS2_PLACEMENT_3D('',#136,#113,#114);
#96=AXIS2_PLACEMENT_3D('',#138,#115,#116);
#97=AXIS2_PLACEMENT_3D('',#140,#117,#118);
#98=AXIS2_PLACEMENT_3D('',#141,#119,#120);
#99=AXIS2_PLACEMENT_3D('',#143,#121,#122);
#100=AXIS2_PLACEMENT_3D('',#144,#123,#124);
#101=AXIS2_PLACEMENT_3D('',#145,#125,#126);
#102=AXIS2_PLACEMENT_3D('',#147,#127,#128);
#103=DIRECTION('',(0.,0.,1.));
#104=DIRECTION('',(1.,0.,0.));
#105=DIRECTION('',(0.,1.,0.));
#106=DIRECTION('',(0.,0.,-1.));
#107=DIRECTION('',(0.,1.,0.));
#108=DIRECTION('',(0.,0.,1.));
#109=DIRECTION('',(0.,1.,0.));
#110=DIRECTION('',(0.,0.,1.));
#111=DIRECTION('',(0.,1.,0.));
#112=DIRECTION('',(0.,0.,-1.));
#113=DIRECTION('',(0.,1.,0.));
#114=DIRECTION('',(0.,0.,1.));
#115=DIRECTION('',(0.,1.,0.));
#116=DIRECTION('',(0.,0.,1.));
#117=DIRECTION('',(0.,-1.,0.));
#118=DIRECTION('',(-1.,0.,0.));
#119=DIRECTION('',(0.,1.,0.));
#120=DIRECTION('',(0.,0.,1.));
#121=DIRECTION('',(0.,-1.,0.));
#122=DIRECTION('',(-1.,0.,0.));
#123=DIRECTION('',(0.,-1.,0.));
#124=DIRECTION('',(0.,0.,1.));
#125=DIRECTION('',(0.,1.,0.));
#126=DIRECTION('',(0.,0.,1.));
#127=DIRECTION('',(0.,-1.,0.));
#128=DIRECTION('',(-1.,0.,0.));
#129=CARTESIAN_POINT('',(0.,0.,0.));
#130=CARTESIAN_POINT('',(0.00799999999997837,-0.041,0.057057268890795));
#131=CARTESIAN_POINT('',(0.00799999999997837,-0.02,0.057057268890795));
#132=CARTESIAN_POINT('',(0.00799999999997837,-0.02,0.071057268890795));
#133=CARTESIAN_POINT('',(0.00799999999997837,-0.032,0.057057268890795));
#134=CARTESIAN_POINT('',(0.00799999999997837,-0.032,0.071057268890795));
#135=CARTESIAN_POINT('',(0.00799999999997837,-0.041,0.057057268890795));
#136=CARTESIAN_POINT('',(0.00799999999997837,-0.041,0.057057268890795));
#137=CARTESIAN_POINT('',(0.00799999999997837,-0.041,0.074557268890795));
#138=CARTESIAN_POINT('',(0.00799999999997837,-0.02,0.057057268890795));
#139=CARTESIAN_POINT('',(0.00799999999997837,-0.02,0.074557268890795));
#140=CARTESIAN_POINT('',(0.00799999999997837,-0.041,0.057057268890795));
#141=CARTESIAN_POINT('',(0.00799999999997837,-0.041,0.057057268890795));
#142=CARTESIAN_POINT('',(0.00799999999997837,-0.041,0.073057268890795));
#143=CARTESIAN_POINT('',(0.00799999999997837,-0.02,0.057057268890795));
#144=CARTESIAN_POINT('',(0.00799999999997837,-0.032,0.057057268890795));
#145=CARTESIAN_POINT('',(0.00799999999997837,-0.032,0.057057268890795));
#146=CARTESIAN_POINT('',(0.00799999999997837,-0.032,0.073057268890795));
#147=CARTESIAN_POINT('',(0.00799999999997837,-0.032,0.057057268890795));
#148=MECHANICAL_DESIGN_GEOMETRIC_PRESENTATION_REPRESENTATION('',(#79),#149);
#149=(
GEOMETRIC_REPRESENTATION_CONTEXT(3)
GLOBAL_UNCERTAINTY_ASSIGNED_CONTEXT((#150))
GLOBAL_UNIT_ASSIGNED_CONTEXT((#153,#152,#151))
REPRESENTATION_CONTEXT('2014.A-Pivot base D','TOP_LEVEL_ASSEMBLY_PART')
);
#150=UNCERTAINTY_MEASURE_WITH_UNIT(LENGTH_MEASURE(5.E-6),#153,
'DISTANCE_ACCURACY_VALUE','Maximum Tolerance applied to model');
#151=(
NAMED_UNIT(*)
SI_UNIT($,.STERADIAN.)
SOLID_ANGLE_UNIT()
);
#152=(
NAMED_UNIT(*)
PLANE_ANGLE_UNIT()
SI_UNIT($,.RADIAN.)
);
#153=(
LENGTH_UNIT()
NAMED_UNIT(*)
SI_UNIT($,.METRE.)
);
#154=PRODUCT_DEFINITION_SHAPE('','',#155);
#155=PRODUCT_DEFINITION('','',#157,#156);
#156=PRODUCT_DEFINITION_CONTEXT('',#163,'design');
#157=PRODUCT_DEFINITION_FORMATION_WITH_SPECIFIED_SOURCE('','',#159,
 .NOT_KNOWN.);
#158=PRODUCT_RELATED_PRODUCT_CATEGORY('','',(#159));
#159=PRODUCT('2014.A-Pivot base D','2014.A-Pivot base D',
'2014.A-Pivot base D',(#161));
#160=PRODUCT_CATEGORY('','');
#161=PRODUCT_CONTEXT('',#163,'mechanical');
#162=APPLICATION_PROTOCOL_DEFINITION('international standard',
'ap242_managed_model_based_3d_engineering',2011,#163);
#163=APPLICATION_CONTEXT('managed model based 3d engineering');
ENDSEC;
END-ISO-10303-21;
