ISO-10303-21;
HEADER;
FILE_DESCRIPTION(('STEP AP203'),'1');
FILE_NAME('20240531_Manchon-Toupie.step','2024-05-31T18:21:43',(' '),(' '),'Spatial InterOp 3D',' ',' ');
FILE_SCHEMA(('CONFIG_CONTROL_DESIGN'));
ENDSEC;
DATA;
#1=DESIGN_CONTEXT('',#27,'design');
#2=APPLICATION_PROTOCOL_DEFINITION('INTERNATIONAL STANDARD','config_control_design',1994,#27);
#3=PRODUCT_CATEGORY_RELATIONSHIP('NONE','NONE',#28,#29);
#4=DATE_AND_TIME(#30,#31);
#5=DATE_TIME_ROLE('creation_date');
#6=DATE_TIME_ROLE('classification_date');
#7=PERSON_AND_ORGANIZATION_ROLE('creator');
#8=PERSON_AND_ORGANIZATION_ROLE('design_supplier');
#9=PERSON_AND_ORGANIZATION_ROLE('classification_officer');
#10=PERSON_AND_ORGANIZATION_ROLE('design_owner');
#11=APPROVAL_PERSON_ORGANIZATION(#32,#33,#34);
#12=APPROVAL_DATE_TIME(#4,#33);
#13=CC_DESIGN_APPROVAL(#33,(#35,#36,#37));
#14=CC_DESIGN_DATE_AND_TIME_ASSIGNMENT(#4,#5,(#37));
#15=CC_DESIGN_DATE_AND_TIME_ASSIGNMENT(#4,#6,(#35));
#16=CC_DESIGN_PERSON_AND_ORGANIZATION_ASSIGNMENT(#32,#10,(#38));
#17=CC_DESIGN_PERSON_AND_ORGANIZATION_ASSIGNMENT(#32,#7,(#37));
#18=CC_DESIGN_PERSON_AND_ORGANIZATION_ASSIGNMENT(#32,#7,(#36));
#19=CC_DESIGN_PERSON_AND_ORGANIZATION_ASSIGNMENT(#32,#8,(#36));
#20=CC_DESIGN_SECURITY_CLASSIFICATION(#35,(#36));
#21=CC_DESIGN_PERSON_AND_ORGANIZATION_ASSIGNMENT(#32,#9,(#35));
#22=SHAPE_DEFINITION_REPRESENTATION(#39,#40);
#23= (GEOMETRIC_REPRESENTATION_CONTEXT(3)GLOBAL_UNCERTAINTY_ASSIGNED_CONTEXT((#43))GLOBAL_UNIT_ASSIGNED_CONTEXT((#45,#46,#47))REPRESENTATION_CONTEXT('NONE','WORKSPACE'));
#27=APPLICATION_CONTEXT('CONFIGURATION CONTROLLED 3D DESIGNS OF MECHANICAL PARTS AND ASSEMBLIES');
#28=PRODUCT_CATEGORY('part','NONE');
#29=PRODUCT_RELATED_PRODUCT_CATEGORY('detail',' ',(#38));
#30=CALENDAR_DATE(2024,31,4);
#31=LOCAL_TIME(20,21,43.0,#49);
#32=PERSON_AND_ORGANIZATION(#50,#51);
#33=APPROVAL(#52,'SOLID MODEL');
#34=APPROVAL_ROLE('APPROVED');
#35=SECURITY_CLASSIFICATION('','',#53);
#36=PRODUCT_DEFINITION_FORMATION_WITH_SPECIFIED_SOURCE(' ','NONE',#38,.NOT_KNOWN.);
#37=PRODUCT_DEFINITION('','NONE',#36,#1);
#38=PRODUCT('1','','PART--DESC',(#54));
#39=PRODUCT_DEFINITION_SHAPE('NONE','NONE',#37);
#40=ADVANCED_BREP_SHAPE_REPRESENTATION('1',(#55,#56),#23);
#43=UNCERTAINTY_MEASURE_WITH_UNIT(LENGTH_MEASURE(0.001),#45,'','');
#45= (CONVERSION_BASED_UNIT('MILLIMETRE',#59)LENGTH_UNIT()NAMED_UNIT(#62));
#46= (NAMED_UNIT(#64)PLANE_ANGLE_UNIT()SI_UNIT($,.RADIAN.));
#47= (NAMED_UNIT(#64)SOLID_ANGLE_UNIT()SI_UNIT($,.STERADIAN.));
#49=COORDINATED_UNIVERSAL_TIME_OFFSET(1,0,.AHEAD.);
#50=PERSON('','UNSPECIFIED',$,$,$,$);
#51=ORGANIZATION('UNSPECIFIED','UNSPECIFIED','UNSPECIFIED');
#52=APPROVAL_STATUS('approved');
#53=SECURITY_CLASSIFICATION_LEVEL('unclassified');
#54=MECHANICAL_CONTEXT('',#27,'mechanical');
#55=MANIFOLD_SOLID_BREP('1',#70);
#56=AXIS2_PLACEMENT_3D('',#71,#72,#73);
#59=LENGTH_MEASURE_WITH_UNIT(LENGTH_MEASURE(1.0),#74);
#62=DIMENSIONAL_EXPONENTS(1.0,0.0,0.0,0.0,0.0,0.0,0.0);
#64=DIMENSIONAL_EXPONENTS(0.0,0.0,0.0,0.0,0.0,0.0,0.0);
#70=CLOSED_SHELL('',(#75,#76,#77,#78,#79,#80,#81,#82,#83,#84,#85,#86,#87,#88));
#71=CARTESIAN_POINT('',(0.0,0.0,0.0));
#72=DIRECTION('',(0.0,0.0,1.0));
#73=DIRECTION('',(1.0,0.0,0.0));
#74= (NAMED_UNIT(#62)LENGTH_UNIT()SI_UNIT(.MILLI.,.METRE.));
#75=ADVANCED_FACE('',(#90,#91),#92,.F.);
#76=ADVANCED_FACE('',(#93,#94),#95,.T.);
#77=ADVANCED_FACE('',(#96,#97),#98,.T.);
#78=ADVANCED_FACE('',(#99,#100),#101,.F.);
#79=ADVANCED_FACE('',(#102,#103),#104,.F.);
#80=ADVANCED_FACE('',(#105,#106),#107,.F.);
#81=ADVANCED_FACE('',(#108,#109),#110,.T.);
#82=ADVANCED_FACE('',(#111,#112),#113,.T.);
#83=ADVANCED_FACE('',(#114,#115),#116,.F.);
#84=ADVANCED_FACE('',(#117,#118),#119,.T.);
#85=ADVANCED_FACE('',(#120,#121),#122,.F.);
#86=ADVANCED_FACE('',(#123,#124),#125,.F.);
#87=ADVANCED_FACE('',(#126,#127),#128,.F.);
#88=ADVANCED_FACE('',(#129,#130),#131,.F.);
#90=FACE_OUTER_BOUND('',#132,.T.);
#91=FACE_BOUND('',#133,.T.);
#92=PLANE('',#134);
#93=FACE_OUTER_BOUND('',#135,.T.);
#94=FACE_OUTER_BOUND('',#136,.T.);
#95=CYLINDRICAL_SURFACE('',#137,25.0);
#96=FACE_OUTER_BOUND('',#138,.T.);
#97=FACE_OUTER_BOUND('',#139,.T.);
#98=CYLINDRICAL_SURFACE('',#140,35.0);
#99=FACE_BOUND('',#141,.T.);
#100=FACE_OUTER_BOUND('',#142,.T.);
#101=PLANE('',#143);
#102=FACE_OUTER_BOUND('',#144,.T.);
#103=FACE_OUTER_BOUND('',#145,.T.);
#104=CYLINDRICAL_SURFACE('',#146,8.5);
#105=FACE_OUTER_BOUND('',#147,.T.);
#106=FACE_BOUND('',#148,.T.);
#107=CONICAL_SURFACE('',#149,8.5,0.785398163397449);
#108=FACE_OUTER_BOUND('',#150,.T.);
#109=FACE_BOUND('',#151,.T.);
#110=CONICAL_SURFACE('',#152,24.5,0.785398163397449);
#111=FACE_OUTER_BOUND('',#153,.T.);
#112=FACE_BOUND('',#154,.T.);
#113=CONICAL_SURFACE('',#155,34.5,0.785398163397448);
#114=FACE_BOUND('',#156,.T.);
#115=FACE_OUTER_BOUND('',#157,.T.);
#116=CONICAL_SURFACE('',#158,9.0,0.785398163397448);
#117=FACE_BOUND('',#159,.T.);
#118=FACE_OUTER_BOUND('',#160,.T.);
#119=CONICAL_SURFACE('',#161,35.0,0.785398163397448);
#120=FACE_BOUND('',#162,.T.);
#121=FACE_OUTER_BOUND('',#163,.T.);
#122=CONICAL_SURFACE('',#164,13.0,0.785398163397448);
#123=FACE_OUTER_BOUND('',#165,.T.);
#124=FACE_BOUND('',#166,.T.);
#125=PLANE('',#167);
#126=FACE_OUTER_BOUND('',#168,.T.);
#127=FACE_OUTER_BOUND('',#169,.T.);
#128=CYLINDRICAL_SURFACE('',#170,12.5);
#129=FACE_BOUND('',#171,.T.);
#130=FACE_OUTER_BOUND('',#172,.T.);
#131=PLANE('',#173);
#132=EDGE_LOOP('',(#174));
#133=EDGE_LOOP('',(#175));
#134=AXIS2_PLACEMENT_3D('',#176,#177,#178);
#135=EDGE_LOOP('',(#179));
#136=EDGE_LOOP('',(#180));
#137=AXIS2_PLACEMENT_3D('',#181,#182,#183);
#138=EDGE_LOOP('',(#184));
#139=EDGE_LOOP('',(#185));
#140=AXIS2_PLACEMENT_3D('',#186,#187,#188);
#141=EDGE_LOOP('',(#189));
#142=EDGE_LOOP('',(#190));
#143=AXIS2_PLACEMENT_3D('',#191,#192,#193);
#144=EDGE_LOOP('',(#194));
#145=EDGE_LOOP('',(#195));
#146=AXIS2_PLACEMENT_3D('',#196,#197,#198);
#147=EDGE_LOOP('',(#199));
#148=EDGE_LOOP('',(#200));
#149=AXIS2_PLACEMENT_3D('',#201,#202,#203);
#150=EDGE_LOOP('',(#204));
#151=EDGE_LOOP('',(#205));
#152=AXIS2_PLACEMENT_3D('',#206,#207,#208);
#153=EDGE_LOOP('',(#209));
#154=EDGE_LOOP('',(#210));
#155=AXIS2_PLACEMENT_3D('',#211,#212,#213);
#156=EDGE_LOOP('',(#214));
#157=EDGE_LOOP('',(#215));
#158=AXIS2_PLACEMENT_3D('',#216,#217,#218);
#159=EDGE_LOOP('',(#219));
#160=EDGE_LOOP('',(#220));
#161=AXIS2_PLACEMENT_3D('',#221,#222,#223);
#162=EDGE_LOOP('',(#224));
#163=EDGE_LOOP('',(#225));
#164=AXIS2_PLACEMENT_3D('',#226,#227,#228);
#165=EDGE_LOOP('',(#229));
#166=EDGE_LOOP('',(#230));
#167=AXIS2_PLACEMENT_3D('',#231,#232,#233);
#168=EDGE_LOOP('',(#234));
#169=EDGE_LOOP('',(#235));
#170=AXIS2_PLACEMENT_3D('',#236,#237,#238);
#171=EDGE_LOOP('',(#239));
#172=EDGE_LOOP('',(#240));
#173=AXIS2_PLACEMENT_3D('',#241,#242,#243);
#174=ORIENTED_EDGE('',*,*,#244,.T.);
#175=ORIENTED_EDGE('',*,*,#245,.F.);
#176=CARTESIAN_POINT('',(-35.0,1.62265700887025E-15,26.5));
#177=DIRECTION('',(0.0,6.12323399573677E-17,1.0));
#178=DIRECTION('',(0.0,-1.0,6.12323399573677E-17));
#179=ORIENTED_EDGE('',*,*,#246,.T.);
#180=ORIENTED_EDGE('',*,*,#245,.T.);
#181=CARTESIAN_POINT('',(0.0,0.0,0.0));
#182=DIRECTION('',(0.0,-6.12323399573677E-17,-1.0));
#183=DIRECTION('',(0.0,1.0,-6.12323399573677E-17));
#184=ORIENTED_EDGE('',*,*,#247,.T.);
#185=ORIENTED_EDGE('',*,*,#248,.T.);
#186=CARTESIAN_POINT('',(0.0,0.0,0.0));
#187=DIRECTION('',(0.0,-6.12323399573677E-17,-1.0));
#188=DIRECTION('',(0.0,1.0,-6.12323399573677E-17));
#189=ORIENTED_EDGE('',*,*,#249,.T.);
#190=ORIENTED_EDGE('',*,*,#250,.T.);
#191=CARTESIAN_POINT('',(-25.0,0.0,0.0));
#192=DIRECTION('',(0.0,6.12323399573677E-17,1.0));
#193=DIRECTION('',(0.0,-1.0,6.12323399573677E-17));
#194=ORIENTED_EDGE('',*,*,#251,.T.);
#195=ORIENTED_EDGE('',*,*,#252,.T.);
#196=CARTESIAN_POINT('',(0.0,0.0,0.0));
#197=DIRECTION('',(0.0,-6.12323399573677E-17,-1.0));
#198=DIRECTION('',(0.0,1.0,-6.12323399573677E-17));
#199=ORIENTED_EDGE('',*,*,#249,.F.);
#200=ORIENTED_EDGE('',*,*,#251,.F.);
#201=CARTESIAN_POINT('',(0.0,3.06161699786839E-17,0.5));
#202=DIRECTION('',(0.0,-6.12323399573677E-17,-1.0));
#203=DIRECTION('',(0.0,1.0,-6.12323399573677E-17));
#204=ORIENTED_EDGE('',*,*,#246,.F.);
#205=ORIENTED_EDGE('',*,*,#250,.F.);
#206=CARTESIAN_POINT('',(0.0,0.0,0.0));
#207=DIRECTION('',(-0.0,6.12323399573677E-17,1.0));
#208=DIRECTION('',(0.0,-1.0,6.12323399573677E-17));
#209=ORIENTED_EDGE('',*,*,#247,.F.);
#210=ORIENTED_EDGE('',*,*,#244,.F.);
#211=CARTESIAN_POINT('',(0.0,1.62265700887025E-15,26.5));
#212=DIRECTION('',(-0.0,6.12323399573679E-17,1.0));
#213=DIRECTION('',(0.0,-1.0,6.12323399573679E-17));
#214=ORIENTED_EDGE('',*,*,#252,.F.);
#215=ORIENTED_EDGE('',*,*,#253,.F.);
#216=CARTESIAN_POINT('',(0.0,7.34788079488412E-16,12.0));
#217=DIRECTION('',(-0.0,6.12323399573677E-17,1.0));
#218=DIRECTION('',(0.0,-1.0,6.12323399573677E-17));
#219=ORIENTED_EDGE('',*,*,#254,.F.);
#220=ORIENTED_EDGE('',*,*,#248,.F.);
#221=CARTESIAN_POINT('',(0.0,1.80635402874235E-15,29.5));
#222=DIRECTION('',(0.0,-6.12323399573675E-17,-1.0));
#223=DIRECTION('',(0.0,1.0,-6.12323399573675E-17));
#224=ORIENTED_EDGE('',*,*,#255,.F.);
#225=ORIENTED_EDGE('',*,*,#256,.F.);
#226=CARTESIAN_POINT('',(0.0,1.83697019872103E-15,30.0));
#227=DIRECTION('',(-0.0,6.12323399573675E-17,1.0));
#228=DIRECTION('',(0.0,-1.0,6.12323399573675E-17));
#229=ORIENTED_EDGE('',*,*,#254,.T.);
#230=ORIENTED_EDGE('',*,*,#256,.T.);
#231=CARTESIAN_POINT('',(-12.5,1.83697019872103E-15,30.0));
#232=DIRECTION('',(0.0,-6.12323399573677E-17,-1.0));
#233=DIRECTION('',(0.0,1.0,-6.12323399573677E-17));
#234=ORIENTED_EDGE('',*,*,#255,.T.);
#235=ORIENTED_EDGE('',*,*,#257,.T.);
#236=CARTESIAN_POINT('',(0.0,0.0,0.0));
#237=DIRECTION('',(0.0,-6.12323399573677E-17,-1.0));
#238=DIRECTION('',(0.0,1.0,-6.12323399573677E-17));
#239=ORIENTED_EDGE('',*,*,#253,.T.);
#240=ORIENTED_EDGE('',*,*,#257,.F.);
#241=CARTESIAN_POINT('',(-8.5,7.34788079488412E-16,12.0));
#242=DIRECTION('',(0.0,-6.12323399573677E-17,-1.0));
#243=DIRECTION('',(0.0,1.0,-6.12323399573677E-17));
#244=EDGE_CURVE('',#258,#258,#259,.F.);
#245=EDGE_CURVE('',#260,#260,#261,.T.);
#246=EDGE_CURVE('',#262,#262,#263,.T.);
#247=EDGE_CURVE('',#264,#264,#265,.T.);
#248=EDGE_CURVE('',#266,#266,#267,.T.);
#249=EDGE_CURVE('',#268,#268,#269,.T.);
#250=EDGE_CURVE('',#270,#270,#271,.F.);
#251=EDGE_CURVE('',#272,#272,#273,.F.);
#252=EDGE_CURVE('',#274,#274,#275,.F.);
#253=EDGE_CURVE('',#276,#276,#277,.T.);
#254=EDGE_CURVE('',#278,#278,#279,.F.);
#255=EDGE_CURVE('',#280,#280,#281,.F.);
#256=EDGE_CURVE('',#282,#282,#283,.T.);
#257=EDGE_CURVE('',#284,#284,#285,.T.);
#258=VERTEX_POINT('',#286);
#259=CIRCLE('',#287,34.5);
#260=VERTEX_POINT('',#288);
#261=CIRCLE('',#289,25.0);
#262=VERTEX_POINT('',#290);
#263=CIRCLE('',#291,25.0);
#264=VERTEX_POINT('',#292);
#265=CIRCLE('',#293,35.0);
#266=VERTEX_POINT('',#294);
#267=CIRCLE('',#295,35.0);
#268=VERTEX_POINT('',#296);
#269=CIRCLE('',#297,9.0);
#270=VERTEX_POINT('',#298);
#271=CIRCLE('',#299,24.5);
#272=VERTEX_POINT('',#300);
#273=CIRCLE('',#301,8.5);
#274=VERTEX_POINT('',#302);
#275=CIRCLE('',#303,8.5);
#276=VERTEX_POINT('',#304);
#277=CIRCLE('',#305,9.0);
#278=VERTEX_POINT('',#306);
#279=CIRCLE('',#307,34.5);
#280=VERTEX_POINT('',#308);
#281=CIRCLE('',#309,12.5);
#282=VERTEX_POINT('',#310);
#283=CIRCLE('',#311,13.0);
#284=VERTEX_POINT('',#312);
#285=CIRCLE('',#313,12.5);
#286=CARTESIAN_POINT('',(-8.45006291411674E-15,-34.5,26.5));
#287=AXIS2_PLACEMENT_3D('',#314,#315,#316);
#288=CARTESIAN_POINT('',(0.0,25.0,26.5));
#289=AXIS2_PLACEMENT_3D('',#317,#318,#319);
#290=CARTESIAN_POINT('',(0.0,-25.0,0.500000000000002));
#291=AXIS2_PLACEMENT_3D('',#320,#321,#322);
#292=CARTESIAN_POINT('',(0.0,-35.0,27.0));
#293=AXIS2_PLACEMENT_3D('',#323,#324,#325);
#294=CARTESIAN_POINT('',(0.0,35.0,29.5));
#295=AXIS2_PLACEMENT_3D('',#326,#327,#328);
#296=CARTESIAN_POINT('',(0.0,-9.0,5.51091059616309E-16));
#297=AXIS2_PLACEMENT_3D('',#329,#330,#331);
#298=CARTESIAN_POINT('',(-6.00076931582203E-15,-24.5,1.50019232895551E-15));
#299=AXIS2_PLACEMENT_3D('',#332,#333,#334);
#300=CARTESIAN_POINT('',(-2.0818995585505E-15,-8.5,0.500000000000001));
#301=AXIS2_PLACEMENT_3D('',#335,#336,#337);
#302=CARTESIAN_POINT('',(-2.0818995585505E-15,8.5,11.5));
#303=AXIS2_PLACEMENT_3D('',#338,#339,#340);
#304=CARTESIAN_POINT('',(0.0,9.0,12.0));
#305=AXIS2_PLACEMENT_3D('',#341,#342,#343);
#306=CARTESIAN_POINT('',(-8.45006291411674E-15,34.5,30.0));
#307=AXIS2_PLACEMENT_3D('',#344,#345,#346);
#308=CARTESIAN_POINT('',(-3.06161699786838E-15,12.5,29.5));
#309=AXIS2_PLACEMENT_3D('',#347,#348,#349);
#310=CARTESIAN_POINT('',(0.0,13.0,30.0));
#311=AXIS2_PLACEMENT_3D('',#350,#351,#352);
#312=CARTESIAN_POINT('',(0.0,12.5,12.0));
#313=AXIS2_PLACEMENT_3D('',#353,#354,#355);
#314=CARTESIAN_POINT('',(0.0,1.62265700887025E-15,26.5));
#315=DIRECTION('',(0.0,6.12323399573677E-17,1.0));
#316=DIRECTION('',(0.0,-1.0,6.12323399573677E-17));
#317=CARTESIAN_POINT('',(0.0,1.62265700887025E-15,26.5));
#318=DIRECTION('',(0.0,-6.12323399573677E-17,-1.0));
#319=DIRECTION('',(0.0,1.0,-6.12323399573677E-17));
#320=CARTESIAN_POINT('',(0.0,3.06161699786839E-17,0.5));
#321=DIRECTION('',(0.0,6.12323399573677E-17,1.0));
#322=DIRECTION('',(0.0,-1.0,6.12323399573677E-17));
#323=CARTESIAN_POINT('',(0.0,1.65327317884893E-15,27.0));
#324=DIRECTION('',(0.0,6.12323399573679E-17,1.0));
#325=DIRECTION('',(0.0,-1.0,6.12323399573679E-17));
#326=CARTESIAN_POINT('',(0.0,1.80635402874235E-15,29.5));
#327=DIRECTION('',(0.0,-6.12323399573675E-17,-1.0));
#328=DIRECTION('',(0.0,1.0,-6.12323399573675E-17));
#329=CARTESIAN_POINT('',(0.0,0.0,0.0));
#330=DIRECTION('',(0.0,6.12323399573677E-17,1.0));
#331=DIRECTION('',(0.0,-1.0,6.12323399573677E-17));
#332=CARTESIAN_POINT('',(0.0,0.0,0.0));
#333=DIRECTION('',(0.0,6.12323399573677E-17,1.0));
#334=DIRECTION('',(0.0,-1.0,6.12323399573677E-17));
#335=CARTESIAN_POINT('',(0.0,3.06161699786839E-17,0.5));
#336=DIRECTION('',(0.0,6.12323399573677E-17,1.0));
#337=DIRECTION('',(0.0,-1.0,6.12323399573677E-17));
#338=CARTESIAN_POINT('',(0.0,7.04171909509728E-16,11.5));
#339=DIRECTION('',(0.0,-6.12323399573677E-17,-1.0));
#340=DIRECTION('',(0.0,1.0,-6.12323399573677E-17));
#341=CARTESIAN_POINT('',(0.0,7.34788079488412E-16,12.0));
#342=DIRECTION('',(0.0,-6.12323399573677E-17,-1.0));
#343=DIRECTION('',(0.0,1.0,-6.12323399573677E-17));
#344=CARTESIAN_POINT('',(0.0,1.83697019872103E-15,30.0));
#345=DIRECTION('',(0.0,-6.12323399573677E-17,-1.0));
#346=DIRECTION('',(0.0,1.0,-6.12323399573677E-17));
#347=CARTESIAN_POINT('',(0.0,1.80635402874235E-15,29.5));
#348=DIRECTION('',(0.0,-6.12323399573675E-17,-1.0));
#349=DIRECTION('',(0.0,1.0,-6.12323399573675E-17));
#350=CARTESIAN_POINT('',(0.0,1.83697019872103E-15,30.0));
#351=DIRECTION('',(0.0,-6.12323399573677E-17,-1.0));
#352=DIRECTION('',(0.0,1.0,-6.12323399573677E-17));
#353=CARTESIAN_POINT('',(0.0,7.34788079488412E-16,12.0));
#354=DIRECTION('',(0.0,-6.12323399573677E-17,-1.0));
#355=DIRECTION('',(0.0,1.0,-6.12323399573677E-17));
ENDSEC;
END-ISO-10303-21;
