ISO-10303-21;
HEADER;
FILE_DESCRIPTION (( 'STEP AP203' ),
    '1' );
FILE_NAME ('Support Reacteur Sup DN100 fin de Phase 10.STEP',
    '2024-05-02T07:36:09',
    ( '' ),
    ( '' ),
    'SwSTEP 2.0',
    'SolidWorks 2020',
    '' );
FILE_SCHEMA (( 'CONFIG_CONTROL_DESIGN' ));
ENDSEC;

DATA;
#1 = FACE_OUTER_BOUND ( 'NONE', #169, .T. ) ;
#2 = DIRECTION ( 'NONE',  ( -1.000000000000000000, -1.406532548089303043E-16, 0.000000000000000000 ) ) ;
#3 = CALENDAR_DATE ( 2024, 2, 5 ) ;
#4 = PERSON_AND_ORGANIZATION ( #244, #128 ) ;
#5 = CALENDAR_DATE ( 2024, 2, 5 ) ;
#6 = PERSON_AND_ORGANIZATION_ROLE ( 'design_supplier' ) ;
#7 = ORIENTED_EDGE ( 'NONE', *, *, #206, .T. ) ;
#8 = DIRECTION ( 'NONE',  ( -1.224646799147352714E-16, 1.000000000000000000, -0.000000000000000000 ) ) ;
#9 = EDGE_LOOP ( 'NONE', ( #37, #76, #135, #116 ) ) ;
#10 = AXIS2_PLACEMENT_3D ( 'NONE', #48, #220, #65 ) ;
#11 = CARTESIAN_POINT ( 'NONE',  ( 74.00000000000000000, -40.72586056815148936, 9.062386313690413585E-15 ) ) ;
#12 = CYLINDRICAL_SURFACE ( 'NONE', #245, 94.00000000000000000 ) ;
#13 = CC_DESIGN_PERSON_AND_ORGANIZATION_ASSIGNMENT ( #239, #6, ( #20 ) ) ;
#14 = ORIENTED_EDGE ( 'NONE', *, *, #156, .T. ) ;
#15 = CC_DESIGN_PERSON_AND_ORGANIZATION_ASSIGNMENT ( #107, #102, ( #20 ) ) ;
#16 = CARTESIAN_POINT ( 'NONE',  ( 2.538185880436105072E-15, -20.72586056815148581, 0.000000000000000000 ) ) ;
#17 = PRODUCT ( 'Support Reacteur Sup DN100 fin de Phase 10', 'Support Reacteur Sup DN100 fin de Phase 10', '', ( #198 ) ) ;
#18 = DIRECTION ( 'NONE',  ( -1.000000000000000000, -9.376883653928687363E-17, 0.000000000000000000 ) ) ;
#19 = APPLICATION_PROTOCOL_DEFINITION ( 'international standard', 'config_control_design', 1994, #44 ) ;
#20 = PRODUCT_DEFINITION_FORMATION_WITH_SPECIFIED_SOURCE ( 'ANY', '', #17, .NOT_KNOWN. ) ;
#21 = CALENDAR_DATE ( 2024, 2, 5 ) ;
#22 = APPROVAL_STATUS ( 'not_yet_approved' ) ;
#23 = ORIENTED_EDGE ( 'NONE', *, *, #27, .F. ) ;
#24 = UNCERTAINTY_MEASURE_WITH_UNIT (LENGTH_MEASURE( 1.000000000000000082E-05 ), #157, 'distance_accuracy_value', 'NONE');
#25 = APPLICATION_PROTOCOL_DEFINITION ( 'international standard', 'config_control_design', 1994, #30 ) ;
#26 = EDGE_LOOP ( 'NONE', ( #54, #87 ) ) ;
#27 = EDGE_CURVE ( 'NONE', #185, #134, #174, .T. ) ;
#28 = CARTESIAN_POINT ( 'NONE',  ( 4.987479478730811585E-15, -40.72586056815149647, 0.000000000000000000 ) ) ;
#29 = DESIGN_CONTEXT ( 'detailed design', #44, 'design' ) ;
#30 = APPLICATION_CONTEXT ( 'configuration controlled 3d designs of mechanical parts and assemblies' ) ;
#31 = CARTESIAN_POINT ( 'NONE',  ( 0.000000000000000000, 0.000000000000000000, 0.000000000000000000 ) ) ;
#32 = CIRCLE ( 'NONE', #67, 74.00000000000000000 ) ;
#33 = PLANE ( 'NONE',  #61 ) ;
#34 = LOCAL_TIME ( 9, 36, 9.000000000000000000, #105 ) ;
#35 = CARTESIAN_POINT ( 'NONE',  ( 0.000000000000000000, 0.000000000000000000, 0.000000000000000000 ) ) ;
#36 = EDGE_CURVE ( 'NONE', #242, #203, #160, .T. ) ;
#37 = ORIENTED_EDGE ( 'NONE', *, *, #136, .F. ) ;
#38 = DIRECTION ( 'NONE',  ( -1.224646799147352714E-16, 1.000000000000000000, -0.000000000000000000 ) ) ;
#39 = FACE_OUTER_BOUND ( 'NONE', #163, .T. ) ;
#40 = DIRECTION ( 'NONE',  ( -1.224646799147352714E-16, 1.000000000000000000, 0.000000000000000000 ) ) ;
#41 = APPROVAL_ROLE ( '' ) ;
#42 = ORIENTED_EDGE ( 'NONE', *, *, #199, .T. ) ;
#43 = DATE_TIME_ROLE ( 'classification_date' ) ;
#44 = APPLICATION_CONTEXT ( 'configuration controlled 3d designs of mechanical parts and assemblies' ) ;
#45 = CC_DESIGN_APPROVAL ( #196, ( #20 ) ) ;
#46 = EDGE_CURVE ( 'NONE', #187, #93, #224, .T. ) ;
#47 = VECTOR ( 'NONE', #139, 1000.000000000000000 ) ;
#48 = CARTESIAN_POINT ( 'NONE',  ( 0.000000000000000000, 0.000000000000000000, 0.000000000000000000 ) ) ;
#49 = DATE_AND_TIME ( #5, #34 ) ;
#50 = PERSON_AND_ORGANIZATION_ROLE ( 'design_owner' ) ;
#51 = CIRCLE ( 'NONE', #70, 74.00000000000000000 ) ;
#52 = CARTESIAN_POINT ( 'NONE',  ( -94.00000000000000000, -40.72586056815150357, 0.000000000000000000 ) ) ;
#53 = FACE_OUTER_BOUND ( 'NONE', #170, .T. ) ;
#54 = ORIENTED_EDGE ( 'NONE', *, *, #148, .F. ) ;
#55 = VECTOR ( 'NONE', #58, 1000.000000000000000 ) ;
#56 = CARTESIAN_POINT ( 'NONE',  ( 0.000000000000000000, 0.000000000000000000, 0.000000000000000000 ) ) ;
#57 = ORIENTED_EDGE ( 'NONE', *, *, #80, .T. ) ;
#58 = DIRECTION ( 'NONE',  ( -1.224646799147352714E-16, 1.000000000000000000, -0.000000000000000000 ) ) ;
#59 = CC_DESIGN_PERSON_AND_ORGANIZATION_ASSIGNMENT ( #81, #64, ( #241 ) ) ;
#60 = DIRECTION ( 'NONE',  ( -1.224646799147352714E-16, 1.000000000000000000, -0.000000000000000000 ) ) ;
#61 = AXIS2_PLACEMENT_3D ( 'NONE', #52, #207, #112 ) ;
#62 = CARTESIAN_POINT ( 'NONE',  ( 94.00000000000000000, 1.151167991198511655E-14, 1.151167991198512128E-14 ) ) ;
#63 = CARTESIAN_POINT ( 'NONE',  ( 74.00000000000000000, -20.72586056815147515, 9.062386313690413585E-15 ) ) ;
#64 = PERSON_AND_ORGANIZATION_ROLE ( 'classification_officer' ) ;
#65 = DIRECTION ( 'NONE',  ( 1.000000000000000000, 0.000000000000000000, 0.000000000000000000 ) ) ;
#66 = CC_DESIGN_DATE_AND_TIME_ASSIGNMENT ( #147, #167, ( #113 ) ) ;
#67 = AXIS2_PLACEMENT_3D ( 'NONE', #16, #60, #2 ) ;
#68 = PERSON_AND_ORGANIZATION_ROLE ( 'creator' ) ;
#69 = ORIENTED_EDGE ( 'NONE', *, *, #206, .F. ) ;
#70 = AXIS2_PLACEMENT_3D ( 'NONE', #193, #38, #18 ) ;
#71 = DIRECTION ( 'NONE',  ( -1.224646799147352714E-16, 1.000000000000000000, -0.000000000000000000 ) ) ;
#72 = DIRECTION ( 'NONE',  ( -1.224646799147352714E-16, 1.000000000000000000, -0.000000000000000000 ) ) ;
#73 = DIRECTION ( 'NONE',  ( -1.000000000000000000, -1.107270303814983294E-16, 0.000000000000000000 ) ) ;
#74 = APPROVAL_PERSON_ORGANIZATION ( #104, #92, #41 ) ;
#75 = CARTESIAN_POINT ( 'NONE',  ( 94.00000000000000000, -40.72586056815147515, 1.151167991198512128E-14 ) ) ;
#76 = ORIENTED_EDGE ( 'NONE', *, *, #109, .T. ) ;
#77 = CARTESIAN_POINT ( 'NONE',  ( -74.00000000000000000, -40.72586056815150357, 0.000000000000000000 ) ) ;
#78 = CC_DESIGN_APPROVAL ( #92, ( #241 ) ) ;
#79 = CARTESIAN_POINT ( 'NONE',  ( -94.00000000000000000, -20.72586056815149647, 0.000000000000000000 ) ) ;
#80 = EDGE_CURVE ( 'NONE', #187, #106, #225, .T. ) ;
#81 = PERSON_AND_ORGANIZATION ( #244, #128 ) ;
#82 = AXIS2_PLACEMENT_3D ( 'NONE', #153, #71, #73 ) ;
#83 = APPROVAL_ROLE ( '' ) ;
#84 = PRODUCT_RELATED_PRODUCT_CATEGORY ( 'detail', '', ( #17 ) ) ;
#85 = ORIENTED_EDGE ( 'NONE', *, *, #27, .T. ) ;
#86 = APPROVAL_DATE_TIME ( #180, #92 ) ;
#87 = ORIENTED_EDGE ( 'NONE', *, *, #191, .F. ) ;
#88 = ADVANCED_FACE ( 'NONE', ( #188, #53 ), #33, .T. ) ;
#89 = CARTESIAN_POINT ( 'NONE',  ( 4.987479478730810796E-15, -40.72586056815148936, 0.000000000000000000 ) ) ;
#90 = AXIS2_PLACEMENT_3D ( 'NONE', #35, #114, #209 ) ;
#91 = CARTESIAN_POINT ( 'NONE',  ( -74.00000000000000000, -9.062386313690408852E-15, 0.000000000000000000 ) ) ;
#92 = APPROVAL ( #217, 'UNSPECIFIED' ) ;
#93 = VERTEX_POINT ( 'NONE', #133 ) ;
#94 = DIRECTION ( 'NONE',  ( -1.224646799147352714E-16, 1.000000000000000000, -0.000000000000000000 ) ) ;
#95 = AXIS2_PLACEMENT_3D ( 'NONE', #79, #40, #137 ) ;
#96 = ORIENTED_EDGE ( 'NONE', *, *, #36, .T. ) ;
#97 = CIRCLE ( 'NONE', #108, 94.00000000000000000 ) ;
#98 = CIRCLE ( 'NONE', #161, 74.00000000000000000 ) ;
#99 = ADVANCED_FACE ( 'NONE', ( #210 ), #149, .T. ) ;
#100 = CARTESIAN_POINT ( 'NONE',  ( 0.000000000000000000, 0.000000000000000000, 0.000000000000000000 ) ) ;
#101 = APPROVAL ( #218, 'UNSPECIFIED' ) ;
#102 = PERSON_AND_ORGANIZATION_ROLE ( 'creator' ) ;
#103 = CLOSED_SHELL ( 'NONE', ( #122, #129, #99, #88, #159, #232 ) ) ;
#104 = PERSON_AND_ORGANIZATION ( #244, #128 ) ;
#105 = COORDINATED_UNIVERSAL_TIME_OFFSET ( 1, 0, .AHEAD. ) ;
#106 = VERTEX_POINT ( 'NONE', #11 ) ;
#107 = PERSON_AND_ORGANIZATION ( #244, #128 ) ;
#108 = AXIS2_PLACEMENT_3D ( 'NONE', #213, #231, #235 ) ;
#109 = EDGE_CURVE ( 'NONE', #134, #185, #200, .T. ) ;
#110 = AXIS2_PLACEMENT_3D ( 'NONE', #31, #247, #173 ) ;
#111 = PERSON_AND_ORGANIZATION ( #244, #128 ) ;
#112 = DIRECTION ( 'NONE',  ( 1.000000000000000000, 1.224646799147352714E-16, 0.000000000000000000 ) ) ;
#113 = PRODUCT_DEFINITION ( 'UNKNOWN', '', #20, #29 ) ;
#114 = DIRECTION ( 'NONE',  ( -1.224646799147352714E-16, 1.000000000000000000, -0.000000000000000000 ) ) ;
#115 = APPROVAL_PERSON_ORGANIZATION ( #111, #196, #83 ) ;
#116 = ORIENTED_EDGE ( 'NONE', *, *, #36, .F. ) ;
#117 = ORIENTED_EDGE ( 'NONE', *, *, #46, .F. ) ;
#118 = ORIENTED_EDGE ( 'NONE', *, *, #199, .F. ) ;
#119 = AXIS2_PLACEMENT_3D ( 'NONE', #28, #8, #131 ) ;
#120 = CARTESIAN_POINT ( 'NONE',  ( 94.00000000000000000, -20.72586056815147515, 1.151167991198512128E-14 ) ) ;
#121 = PLANE ( 'NONE',  #95 ) ;
#122 = ADVANCED_FACE ( 'NONE', ( #172 ), #208, .F. ) ;
#123 = DIRECTION ( 'NONE',  ( -1.000000000000000000, -1.406532548089303043E-16, 0.000000000000000000 ) ) ;
#124 = CC_DESIGN_APPROVAL ( #101, ( #113 ) ) ;
#125 = CYLINDRICAL_SURFACE ( 'NONE', #146, 74.00000000000000000 ) ;
#126 = COORDINATED_UNIVERSAL_TIME_OFFSET ( 1, 0, .AHEAD. ) ;
#127 = DATE_AND_TIME ( #3, #152 ) ;
#128 = ORGANIZATION ( 'UNSPECIFIED', 'UNSPECIFIED', '' ) ;
#129 = ADVANCED_FACE ( 'NONE', ( #229 ), #12, .T. ) ;
#130 = LOCAL_TIME ( 9, 36, 9.000000000000000000, #223 ) ;
#131 = DIRECTION ( 'NONE',  ( -1.000000000000000000, -9.376883653928687363E-17, 0.000000000000000000 ) ) ;
#132 = DIRECTION ( 'NONE',  ( -1.000000000000000000, -1.476360405086644309E-16, 0.000000000000000000 ) ) ;
#133 = CARTESIAN_POINT ( 'NONE',  ( -74.00000000000000000, -20.72586056815149647, 0.000000000000000000 ) ) ;
#134 = VERTEX_POINT ( 'NONE', #75 ) ;
#135 = ORIENTED_EDGE ( 'NONE', *, *, #178, .T. ) ;
#136 = EDGE_CURVE ( 'NONE', #134, #242, #230, .T. ) ;
#137 = DIRECTION ( 'NONE',  ( -1.000000000000000000, -1.224646799147352714E-16, 0.000000000000000000 ) ) ;
#138 = VECTOR ( 'NONE', #72, 1000.000000000000000 ) ;
#139 = DIRECTION ( 'NONE',  ( -1.224646799147352714E-16, 1.000000000000000000, -0.000000000000000000 ) ) ;
#140 = LINE ( 'NONE', #195, #55 ) ;
#141 =( GEOMETRIC_REPRESENTATION_CONTEXT ( 3 ) GLOBAL_UNCERTAINTY_ASSIGNED_CONTEXT ( ( #24 ) ) GLOBAL_UNIT_ASSIGNED_CONTEXT ( ( #157, #215, #197 ) ) REPRESENTATION_CONTEXT ( 'NONE', 'WORKASPACE' ) );
#142 = CARTESIAN_POINT ( 'NONE',  ( 2.538185880436105072E-15, -20.72586056815148581, 0.000000000000000000 ) ) ;
#143 = DATE_AND_TIME ( #21, #158 ) ;
#144 = PERSON_AND_ORGANIZATION ( #244, #128 ) ;
#145 = VERTEX_POINT ( 'NONE', #63 ) ;
#146 = AXIS2_PLACEMENT_3D ( 'NONE', #100, #155, #212 ) ;
#147 = DATE_AND_TIME ( #204, #130 ) ;
#148 = EDGE_CURVE ( 'NONE', #93, #145, #98, .T. ) ;
#149 = CYLINDRICAL_SURFACE ( 'NONE', #90, 94.00000000000000000 ) ;
#150 = ORIENTED_EDGE ( 'NONE', *, *, #46, .T. ) ;
#151 = DIRECTION ( 'NONE',  ( -1.000000000000000000, -1.476360405086644309E-16, 0.000000000000000000 ) ) ;
#152 = LOCAL_TIME ( 9, 36, 9.000000000000000000, #222 ) ;
#153 = CARTESIAN_POINT ( 'NONE',  ( 2.538185880436105072E-15, -20.72586056815148581, 0.000000000000000000 ) ) ;
#154 = CARTESIAN_POINT ( 'NONE',  ( -94.00000000000000000, -1.151167991198511655E-14, 0.000000000000000000 ) ) ;
#155 = DIRECTION ( 'NONE',  ( -1.224646799147352714E-16, 1.000000000000000000, -0.000000000000000000 ) ) ;
#156 = EDGE_CURVE ( 'NONE', #106, #187, #51, .T. ) ;
#157 =( LENGTH_UNIT ( ) NAMED_UNIT ( * ) SI_UNIT ( .MILLI., .METRE. ) );
#158 = LOCAL_TIME ( 9, 36, 9.000000000000000000, #201 ) ;
#159 = ADVANCED_FACE ( 'NONE', ( #39 ), #125, .F. ) ;
#160 = CIRCLE ( 'NONE', #82, 94.00000000000000000 ) ;
#161 = AXIS2_PLACEMENT_3D ( 'NONE', #142, #214, #123 ) ;
#162 = CALENDAR_DATE ( 2024, 2, 5 ) ;
#163 = EDGE_LOOP ( 'NONE', ( #69, #221, #150, #166 ) ) ;
#164 = APPROVAL_DATE_TIME ( #127, #101 ) ;
#165 = APPROVAL_PERSON_ORGANIZATION ( #144, #101, #205 ) ;
#166 = ORIENTED_EDGE ( 'NONE', *, *, #148, .T. ) ;
#167 = DATE_TIME_ROLE ( 'creation_date' ) ;
#168 = ORIENTED_EDGE ( 'NONE', *, *, #136, .T. ) ;
#169 = EDGE_LOOP ( 'NONE', ( #42, #96 ) ) ;
#170 = EDGE_LOOP ( 'NONE', ( #23, #175 ) ) ;
#171 = EDGE_LOOP ( 'NONE', ( #57, #14 ) ) ;
#172 = FACE_OUTER_BOUND ( 'NONE', #228, .T. ) ;
#173 = DIRECTION ( 'NONE',  ( -1.000000000000000000, -1.224646799147352468E-16, 0.000000000000000000 ) ) ;
#174 = CIRCLE ( 'NONE', #236, 94.00000000000000000 ) ;
#175 = ORIENTED_EDGE ( 'NONE', *, *, #109, .F. ) ;
#176 = CC_DESIGN_PERSON_AND_ORGANIZATION_ASSIGNMENT ( #4, #50, ( #17 ) ) ;
#177 = CARTESIAN_POINT ( 'NONE',  ( -94.00000000000000000, -20.72586056815149647, 0.000000000000000000 ) ) ;
#178 = EDGE_CURVE ( 'NONE', #185, #203, #233, .T. ) ;
#179 = DIRECTION ( 'NONE',  ( -1.224646799147352714E-16, 1.000000000000000000, -0.000000000000000000 ) ) ;
#180 = DATE_AND_TIME ( #162, #186 ) ;
#181 = APPROVAL_DATE_TIME ( #49, #196 ) ;
#182 = MANIFOLD_SOLID_BREP ( 'Révolution1', #103 ) ;
#183 = SECURITY_CLASSIFICATION_LEVEL ( 'unclassified' ) ;
#184 = DIRECTION ( 'NONE',  ( -1.224646799147352714E-16, 1.000000000000000000, -0.000000000000000000 ) ) ;
#185 = VERTEX_POINT ( 'NONE', #216 ) ;
#186 = LOCAL_TIME ( 9, 36, 9.000000000000000000, #126 ) ;
#187 = VERTEX_POINT ( 'NONE', #77 ) ;
#188 = FACE_BOUND ( 'NONE', #171, .T. ) ;
#189 = ADVANCED_BREP_SHAPE_REPRESENTATION ( 'Support Reacteur Sup DN100 fin de Phase 10', ( #182, #10 ), #141 ) ;
#190 = ORIENTED_EDGE ( 'NONE', *, *, #156, .F. ) ;
#191 = EDGE_CURVE ( 'NONE', #145, #93, #32, .T. ) ;
#192 = FACE_BOUND ( 'NONE', #26, .T. ) ;
#193 = CARTESIAN_POINT ( 'NONE',  ( 4.987479478730811585E-15, -40.72586056815149647, 0.000000000000000000 ) ) ;
#194 = AXIS2_PLACEMENT_3D ( 'NONE', #89, #226, #132 ) ;
#195 = CARTESIAN_POINT ( 'NONE',  ( 74.00000000000000000, 9.062386313690408852E-15, 9.062386313690413585E-15 ) ) ;
#196 = APPROVAL ( #22, 'UNSPECIFIED' ) ;
#197 =( NAMED_UNIT ( * ) SI_UNIT ( $, .STERADIAN. ) SOLID_ANGLE_UNIT ( ) );
#198 = MECHANICAL_CONTEXT ( 'NONE', #30, 'mechanical' ) ;
#199 = EDGE_CURVE ( 'NONE', #203, #242, #97, .T. ) ;
#200 = CIRCLE ( 'NONE', #194, 94.00000000000000000 ) ;
#201 = COORDINATED_UNIVERSAL_TIME_OFFSET ( 1, 0, .AHEAD. ) ;
#202 = PERSON_AND_ORGANIZATION ( #244, #128 ) ;
#203 = VERTEX_POINT ( 'NONE', #177 ) ;
#204 = CALENDAR_DATE ( 2024, 2, 5 ) ;
#205 = APPROVAL_ROLE ( '' ) ;
#206 = EDGE_CURVE ( 'NONE', #106, #145, #140, .T. ) ;
#207 = DIRECTION ( 'NONE',  ( 1.224646799147352714E-16, -1.000000000000000000, 0.000000000000000000 ) ) ;
#208 = CYLINDRICAL_SURFACE ( 'NONE', #110, 74.00000000000000000 ) ;
#209 = DIRECTION ( 'NONE',  ( -1.000000000000000000, -1.224646799147352714E-16, 0.000000000000000000 ) ) ;
#210 = FACE_OUTER_BOUND ( 'NONE', #9, .T. ) ;
#211 = EDGE_LOOP ( 'NONE', ( #85, #168, #118, #243 ) ) ;
#212 = DIRECTION ( 'NONE',  ( -1.000000000000000000, -1.224646799147352468E-16, 0.000000000000000000 ) ) ;
#213 = CARTESIAN_POINT ( 'NONE',  ( 2.538185880436105072E-15, -20.72586056815148581, 0.000000000000000000 ) ) ;
#214 = DIRECTION ( 'NONE',  ( -1.224646799147352714E-16, 1.000000000000000000, -0.000000000000000000 ) ) ;
#215 =( NAMED_UNIT ( * ) PLANE_ANGLE_UNIT ( ) SI_UNIT ( $, .RADIAN. ) );
#216 = CARTESIAN_POINT ( 'NONE',  ( -94.00000000000000000, -40.72586056815150357, 0.000000000000000000 ) ) ;
#217 = APPROVAL_STATUS ( 'not_yet_approved' ) ;
#218 = APPROVAL_STATUS ( 'not_yet_approved' ) ;
#219 = CC_DESIGN_SECURITY_CLASSIFICATION ( #241, ( #20 ) ) ;
#220 = DIRECTION ( 'NONE',  ( 0.000000000000000000, 0.000000000000000000, 1.000000000000000000 ) ) ;
#221 = ORIENTED_EDGE ( 'NONE', *, *, #80, .F. ) ;
#222 = COORDINATED_UNIVERSAL_TIME_OFFSET ( 1, 0, .AHEAD. ) ;
#223 = COORDINATED_UNIVERSAL_TIME_OFFSET ( 1, 0, .AHEAD. ) ;
#224 = LINE ( 'NONE', #91, #138 ) ;
#225 = CIRCLE ( 'NONE', #119, 74.00000000000000000 ) ;
#226 = DIRECTION ( 'NONE',  ( -1.224646799147352714E-16, 1.000000000000000000, -0.000000000000000000 ) ) ;
#227 = CC_DESIGN_DATE_AND_TIME_ASSIGNMENT ( #143, #43, ( #241 ) ) ;
#228 = EDGE_LOOP ( 'NONE', ( #190, #7, #249, #117 ) ) ;
#229 = FACE_OUTER_BOUND ( 'NONE', #211, .T. ) ;
#230 = LINE ( 'NONE', #62, #237 ) ;
#231 = DIRECTION ( 'NONE',  ( -1.224646799147352714E-16, 1.000000000000000000, -0.000000000000000000 ) ) ;
#232 = ADVANCED_FACE ( 'NONE', ( #1, #192 ), #121, .T. ) ;
#233 = LINE ( 'NONE', #154, #47 ) ;
#234 = PRODUCT_DEFINITION_SHAPE ( 'NONE', 'NONE',  #113 ) ;
#235 = DIRECTION ( 'NONE',  ( -1.000000000000000000, -1.107270303814983294E-16, 0.000000000000000000 ) ) ;
#236 = AXIS2_PLACEMENT_3D ( 'NONE', #246, #184, #151 ) ;
#237 = VECTOR ( 'NONE', #179, 1000.000000000000000 ) ;
#238 = CC_DESIGN_PERSON_AND_ORGANIZATION_ASSIGNMENT ( #202, #68, ( #113 ) ) ;
#239 = PERSON_AND_ORGANIZATION ( #244, #128 ) ;
#240 = SHAPE_DEFINITION_REPRESENTATION ( #234, #189 ) ;
#241 = SECURITY_CLASSIFICATION ( '', '', #183 ) ;
#242 = VERTEX_POINT ( 'NONE', #120 ) ;
#243 = ORIENTED_EDGE ( 'NONE', *, *, #178, .F. ) ;
#244 = PERSON ( 'UNSPECIFIED', 'UNSPECIFIED', 'UNSPECIFIED', ('UNSPECIFIED'), ('UNSPECIFIED'), ('UNSPECIFIED') ) ;
#245 = AXIS2_PLACEMENT_3D ( 'NONE', #56, #94, #248 ) ;
#246 = CARTESIAN_POINT ( 'NONE',  ( 4.987479478730810796E-15, -40.72586056815148936, 0.000000000000000000 ) ) ;
#247 = DIRECTION ( 'NONE',  ( -1.224646799147352714E-16, 1.000000000000000000, -0.000000000000000000 ) ) ;
#248 = DIRECTION ( 'NONE',  ( -1.000000000000000000, -1.224646799147352714E-16, 0.000000000000000000 ) ) ;
#249 = ORIENTED_EDGE ( 'NONE', *, *, #191, .T. ) ;
ENDSEC;
END-ISO-10303-21;
