ISO-10303-21;
HEADER;
FILE_DESCRIPTION (( 'STEP AP203' ),
    '1' );
FILE_NAME ('ROV-USI-022A-RENFORT .STEP',
    '2024-05-22T12:53:02',
    ( '' ),
    ( '' ),
    'SwSTEP 2.0',
    'SolidWorks 2016',
    '' );
FILE_SCHEMA (( 'CONFIG_CONTROL_DESIGN' ));
ENDSEC;

DATA;
#1 = FACE_OUTER_BOUND ( 'NONE', #292, .T. ) ;
#2 = ORIENTED_EDGE ( 'NONE', *, *, #353, .F. ) ;
#3 = DIRECTION ( 'NONE',  ( -0.5150380749100580400, 0.0000000000000000000, 0.8571673007021101100 ) ) ;
#4 = ADVANCED_FACE ( 'NONE', ( #356 ), #87, .T. ) ;
#5 = LINE ( 'NONE', #160, #303 ) ;
#6 = DATE_AND_TIME ( #64, #109 ) ;
#7 = APPROVAL ( #280, 'UNSPECIFIED' ) ;
#8 = VERTEX_POINT ( 'NONE', #177 ) ;
#9 = MANIFOLD_SOLID_BREP ( 'Trou taraudé M42', #203 ) ;
#10 = ADVANCED_FACE ( 'NONE', ( #299 ), #321, .F. ) ;
#11 = DIRECTION ( 'NONE',  ( 0.0000000000000000000, 0.0000000000000000000, -1.000000000000000000 ) ) ;
#12 = VERTEX_POINT ( 'NONE', #188 ) ;
#13 = CARTESIAN_POINT ( 'NONE',  ( 115.0000000000000000, 0.0000000000000000000, 4.000000000000000000 ) ) ;
#14 = CARTESIAN_POINT ( 'NONE',  ( -103.5000000000000100, 0.0000000000000000000, 0.0000000000000000000 ) ) ;
#15 = CIRCLE ( 'NONE', #156, 1.649999999999997700 ) ;
#16 = DIRECTION ( 'NONE',  ( 0.0000000000000000000, 0.0000000000000000000, -1.000000000000000000 ) ) ;
#17 = DIRECTION ( 'NONE',  ( 1.000000000000000000, -0.0000000000000000000, -0.0000000000000000000 ) ) ;
#18 = AXIS2_PLACEMENT_3D ( 'NONE', #320, #196, #70 ) ;
#19 = CARTESIAN_POINT ( 'NONE',  ( -103.5000000000000100, 0.0000000000000000000, 0.0000000000000000000 ) ) ;
#20 = CC_DESIGN_DATE_AND_TIME_ASSIGNMENT ( #201, #250, ( #323 ) ) ;
#21 = CARTESIAN_POINT ( 'NONE',  ( -115.0000000000000000, 0.0000000000000000000, 4.000000000000000000 ) ) ;
#22 = PERSON_AND_ORGANIZATION_ROLE ( 'design_owner' ) ;
#23 = PERSON ( 'UNSPECIFIED', 'UNSPECIFIED', 'UNSPECIFIED', ('UNSPECIFIED'), ('UNSPECIFIED'), ('UNSPECIFIED') ) ;
#24 = PERSON_AND_ORGANIZATION ( #23, #305 ) ;
#25 = ORIENTED_EDGE ( 'NONE', *, *, #168, .T. ) ;
#26 = ORIENTED_EDGE ( 'NONE', *, *, #35, .T. ) ;
#27 = EDGE_CURVE ( 'NONE', #291, #322, #209, .T. ) ;
#28 = CC_DESIGN_SECURITY_CLASSIFICATION ( #382, ( #239 ) ) ;
#29 = LINE ( 'NONE', #186, #41 ) ;
#30 = EDGE_LOOP ( 'NONE', ( #302, #327, #25 ) ) ;
#31 = ORIENTED_EDGE ( 'NONE', *, *, #198, .F. ) ;
#32 = ORIENTED_EDGE ( 'NONE', *, *, #58, .F. ) ;
#33 = CALENDAR_DATE ( 2024, 22, 5 ) ;
#34 = EDGE_LOOP ( 'NONE', ( #52, #112 ) ) ;
#35 = EDGE_CURVE ( 'NONE', #98, #210, #29, .T. ) ;
#36 = ORIENTED_EDGE ( 'NONE', *, *, #257, .T. ) ;
#37 = DIRECTION ( 'NONE',  ( -1.000000000000000000, -0.0000000000000000000, -0.0000000000000000000 ) ) ;
#38 = CARTESIAN_POINT ( 'NONE',  ( -115.0000000000000000, 0.0000000000000000000, 0.0000000000000000000 ) ) ;
#39 = DIRECTION ( 'NONE',  ( 0.0000000000000000000, 0.0000000000000000000, 1.000000000000000000 ) ) ;
#40 = PERSON_AND_ORGANIZATION ( #23, #305 ) ;
#41 = VECTOR ( 'NONE', #90, 1000.000000000000000 ) ;
#42 = ORIENTED_EDGE ( 'NONE', *, *, #142, .F. ) ;
#43 = CARTESIAN_POINT ( 'NONE',  ( 115.0000000000000000, 4.898587196589412800E-016, -4.000000000000000000 ) ) ;
#44 = AXIS2_PLACEMENT_3D ( 'NONE', #14, #268, #329 ) ;
#45 = APPROVAL_STATUS ( 'not_yet_approved' ) ;
#46 = DIRECTION ( 'NONE',  ( 0.0000000000000000000, 0.0000000000000000000, -1.000000000000000000 ) ) ;
#47 = DIRECTION ( 'NONE',  ( 0.5150380749100558200, 1.049727191138617500E-016, 0.8571673007021113300 ) ) ;
#48 = VERTEX_POINT ( 'NONE', #370 ) ;
#49 = ORIENTED_EDGE ( 'NONE', *, *, #82, .T. ) ;
#50 = COORDINATED_UNIVERSAL_TIME_OFFSET ( 1, 0, .AHEAD. ) ;
#51 = DIRECTION ( 'NONE',  ( 0.0000000000000000000, 0.0000000000000000000, -1.000000000000000000 ) ) ;
#52 = ORIENTED_EDGE ( 'NONE', *, *, #27, .F. ) ;
#53 = VERTEX_POINT ( 'NONE', #21 ) ;
#54 = CARTESIAN_POINT ( 'NONE',  ( 0.0000000000000000000, 0.0000000000000000000, 0.0000000000000000000 ) ) ;
#55 = ADVANCED_FACE ( 'NONE', ( #256 ), #77, .F. ) ;
#56 = DIRECTION ( 'NONE',  ( 1.000000000000000000, 0.0000000000000000000, 0.0000000000000000000 ) ) ;
#57 = LINE ( 'NONE', #307, #123 ) ;
#58 = EDGE_CURVE ( 'NONE', #12, #291, #337, .T. ) ;
#59 = DIRECTION ( 'NONE',  ( 0.0000000000000000000, 0.0000000000000000000, -1.000000000000000000 ) ) ;
#60 = EDGE_LOOP ( 'NONE', ( #118, #164, #367 ) ) ;
#61 = APPROVAL_DATE_TIME ( #104, #339 ) ;
#62 = ORIENTED_EDGE ( 'NONE', *, *, #212, .T. ) ;
#63 = VECTOR ( 'NONE', #101, 1000.000000000000000 ) ;
#64 = CALENDAR_DATE ( 2024, 22, 5 ) ;
#65 = AXIS2_PLACEMENT_3D ( 'NONE', #144, #76, #298 ) ;
#66 = AXIS2_PLACEMENT_3D ( 'NONE', #120, #336, #246 ) ;
#67 = CALENDAR_DATE ( 2024, 22, 5 ) ;
#68 = CONICAL_SURFACE ( 'NONE', #124, 1.649999999999988400, 1.029744258676650100 ) ;
#69 = PERSON_AND_ORGANIZATION ( #23, #305 ) ;
#70 = DIRECTION ( 'NONE',  ( 0.0000000000000000000, 0.0000000000000000000, -1.000000000000000000 ) ) ;
#71 = DIRECTION ( 'NONE',  ( 1.000000000000000000, -0.0000000000000000000, -0.0000000000000000000 ) ) ;
#72 = CYLINDRICAL_SURFACE ( 'NONE', #351, 1.649999999999993900 ) ;
#73 = CARTESIAN_POINT ( 'NONE',  ( 103.5000000000000100, 0.0000000000000000000, 0.0000000000000000000 ) ) ;
#74 =( NAMED_UNIT ( * ) PLANE_ANGLE_UNIT ( ) SI_UNIT ( $, .RADIAN. ) );
#75 = DIRECTION ( 'NONE',  ( 1.000000000000000000, 0.0000000000000000000, 0.0000000000000000000 ) ) ;
#76 = DIRECTION ( 'NONE',  ( -1.000000000000000000, -0.0000000000000000000, -0.0000000000000000000 ) ) ;
#77 = CYLINDRICAL_SURFACE ( 'NONE', #178, 1.649999999999993900 ) ;
#78 = EDGE_LOOP ( 'NONE', ( #181, #271, #126, #279 ) ) ;
#79 = APPROVAL ( #45, 'UNSPECIFIED' ) ;
#80 = ORIENTED_EDGE ( 'NONE', *, *, #338, .F. ) ;
#81 = ORIENTED_EDGE ( 'NONE', *, *, #119, .T. ) ;
#82 = EDGE_CURVE ( 'NONE', #140, #12, #372, .T. ) ;
#83 = ADVANCED_BREP_SHAPE_REPRESENTATION ( 'ROV-USI-022A-RENFORT ', ( #9, #253 ), #283 ) ;
#84 = VECTOR ( 'NONE', #17, 1000.000000000000000 ) ;
#85 = DIRECTION ( 'NONE',  ( 0.0000000000000000000, 0.0000000000000000000, 1.000000000000000000 ) ) ;
#86 = CIRCLE ( 'NONE', #252, 4.000000000000000000 ) ;
#87 = CYLINDRICAL_SURFACE ( 'NONE', #265, 4.000000000000000000 ) ;
#88 = CC_DESIGN_PERSON_AND_ORGANIZATION_ASSIGNMENT ( #237, #129, ( #239 ) ) ;
#89 = ORIENTED_EDGE ( 'NONE', *, *, #122, .F. ) ;
#90 = DIRECTION ( 'NONE',  ( 1.000000000000000000, -0.0000000000000000000, -0.0000000000000000000 ) ) ;
#91 = DIRECTION ( 'NONE',  ( 1.000000000000000000, 0.0000000000000000000, 0.0000000000000000000 ) ) ;
#92 = VERTEX_POINT ( 'NONE', #97 ) ;
#93 = PRODUCT ( 'ROV-USI-022A-RENFORT ', 'ROV-USI-022A-RENFORT ', '', ( #311 ) ) ;
#94 = CARTESIAN_POINT ( 'NONE',  ( 115.0000000000000000, 0.0000000000000000000, 0.0000000000000000000 ) ) ;
#95 = AXIS2_PLACEMENT_3D ( 'NONE', #236, #331, #155 ) ;
#96 = SECURITY_CLASSIFICATION_LEVEL ( 'unclassified' ) ;
#97 = CARTESIAN_POINT ( 'NONE',  ( 103.5000000000000100, 0.0000000000000000000, -1.649999999999997700 ) ) ;
#98 = VERTEX_POINT ( 'NONE', #159 ) ;
#99 = DIRECTION ( 'NONE',  ( -0.5150380749100580400, 1.049727191138616000E-016, -0.8571673007021101100 ) ) ;
#100 = AXIS2_PLACEMENT_3D ( 'NONE', #73, #324, #51 ) ;
#101 = DIRECTION ( 'NONE',  ( -1.000000000000000000, -0.0000000000000000000, -0.0000000000000000000 ) ) ;
#102 = ADVANCED_FACE ( 'NONE', ( #315 ), #131, .T. ) ;
#103 = FACE_OUTER_BOUND ( 'NONE', #352, .T. ) ;
#104 = DATE_AND_TIME ( #366, #147 ) ;
#105 = CIRCLE ( 'NONE', #273, 4.000000000000000000 ) ;
#106 = EDGE_LOOP ( 'NONE', ( #333, #317, #36, #32 ) ) ;
#107 = AXIS2_PLACEMENT_3D ( 'NONE', #94, #222, #224 ) ;
#108 = CARTESIAN_POINT ( 'NONE',  ( -115.0000000000000000, 0.0000000000000000000, 1.649999999999989900 ) ) ;
#109 = LOCAL_TIME ( 14, 53, 2.000000000000000000, #194 ) ;
#110 = DIRECTION ( 'NONE',  ( 1.000000000000000000, 0.0000000000000000000, 0.0000000000000000000 ) ) ;
#111 = ORIENTED_EDGE ( 'NONE', *, *, #241, .F. ) ;
#112 = ORIENTED_EDGE ( 'NONE', *, *, #257, .F. ) ;
#113 = AXIS2_PLACEMENT_3D ( 'NONE', #347, #75, #233 ) ;
#114 = AXIS2_PLACEMENT_3D ( 'NONE', #38, #211, #39 ) ;
#115 = PERSON_AND_ORGANIZATION ( #23, #305 ) ;
#116 = CIRCLE ( 'NONE', #18, 1.649999999999989900 ) ;
#117 = VERTEX_POINT ( 'NONE', #173 ) ;
#118 = ORIENTED_EDGE ( 'NONE', *, *, #368, .F. ) ;
#119 = EDGE_CURVE ( 'NONE', #8, #53, #235, .T. ) ;
#120 = CARTESIAN_POINT ( 'NONE',  ( -115.0000000000000000, 0.0000000000000000000, 0.0000000000000000000 ) ) ;
#121 = APPLICATION_CONTEXT ( 'configuration controlled 3d designs of mechanical parts and assemblies' ) ;
#122 = EDGE_CURVE ( 'NONE', #53, #8, #86, .T. ) ;
#123 = VECTOR ( 'NONE', #223, 1000.000000000000000 ) ;
#124 = AXIS2_PLACEMENT_3D ( 'NONE', #19, #335, #277 ) ;
#125 = FACE_BOUND ( 'NONE', #206, .T. ) ;
#126 = ORIENTED_EDGE ( 'NONE', *, *, #241, .T. ) ;
#127 = PERSON_AND_ORGANIZATION_ROLE ( 'classification_officer' ) ;
#128 = DIRECTION ( 'NONE',  ( 1.000000000000000000, -0.0000000000000000000, -0.0000000000000000000 ) ) ;
#129 = PERSON_AND_ORGANIZATION_ROLE ( 'design_supplier' ) ;
#130 = ADVANCED_FACE ( 'NONE', ( #306 ), #350, .F. ) ;
#131 = CYLINDRICAL_SURFACE ( 'NONE', #107, 4.000000000000000000 ) ;
#132 = ORIENTED_EDGE ( 'NONE', *, *, #381, .F. ) ;
#133 = DIRECTION ( 'NONE',  ( 0.0000000000000000000, 0.0000000000000000000, -1.000000000000000000 ) ) ;
#134 = DIRECTION ( 'NONE',  ( 1.000000000000000000, -0.0000000000000000000, -0.0000000000000000000 ) ) ;
#135 = CARTESIAN_POINT ( 'NONE',  ( 115.0000000000000000, 0.0000000000000000000, 0.0000000000000000000 ) ) ;
#136 = ADVANCED_FACE ( 'NONE', ( #261 ), #355, .F. ) ;
#137 = DATE_AND_TIME ( #33, #242 ) ;
#138 = LINE ( 'NONE', #383, #197 ) ;
#139 = APPROVAL_PERSON_ORGANIZATION ( #69, #339, #166 ) ;
#140 = VERTEX_POINT ( 'NONE', #362 ) ;
#141 = FACE_OUTER_BOUND ( 'NONE', #60, .T. ) ;
#142 = EDGE_CURVE ( 'NONE', #180, #8, #238, .T. ) ;
#143 = ADVANCED_FACE ( 'NONE', ( #290, #219 ), #207, .F. ) ;
#144 = CARTESIAN_POINT ( 'NONE',  ( -103.5000000000000100, 0.0000000000000000000, 0.0000000000000000000 ) ) ;
#145 = CARTESIAN_POINT ( 'NONE',  ( -103.5000000000000100, 0.0000000000000000000, 1.649999999999988400 ) ) ;
#146 = CYLINDRICAL_SURFACE ( 'NONE', #95, 1.649999999999989300 ) ;
#147 = LOCAL_TIME ( 14, 53, 2.000000000000000000, #205 ) ;
#148 = CIRCLE ( 'NONE', #113, 4.000000000000000000 ) ;
#149 = ORIENTED_EDGE ( 'NONE', *, *, #119, .F. ) ;
#150 = CC_DESIGN_APPROVAL ( #79, ( #382 ) ) ;
#151 = DIRECTION ( 'NONE',  ( 0.0000000000000000000, 0.0000000000000000000, -1.000000000000000000 ) ) ;
#152 = CARTESIAN_POINT ( 'NONE',  ( -115.0000000000000000, 0.0000000000000000000, 0.0000000000000000000 ) ) ;
#153 = DATE_AND_TIME ( #67, #254 ) ;
#154 = ORIENTED_EDGE ( 'NONE', *, *, #381, .T. ) ;
#155 = DIRECTION ( 'NONE',  ( 0.0000000000000000000, 0.0000000000000000000, 1.000000000000000000 ) ) ;
#156 = AXIS2_PLACEMENT_3D ( 'NONE', #319, #71, #348 ) ;
#157 = AXIS2_PLACEMENT_3D ( 'NONE', #152, #360, #373 ) ;
#158 = CARTESIAN_POINT ( 'NONE',  ( -115.0000000000000000, 0.0000000000000000000, 0.0000000000000000000 ) ) ;
#159 = CARTESIAN_POINT ( 'NONE',  ( 103.5000000000000100, 2.020667218593129800E-016, 1.649999999999997700 ) ) ;
#160 = CARTESIAN_POINT ( 'NONE',  ( 103.5000000000000100, 0.0000000000000000000, -1.649999999999997700 ) ) ;
#161 = APPLICATION_PROTOCOL_DEFINITION ( 'international standard', 'config_control_design', 1994, #121 ) ;
#162 = AXIS2_PLACEMENT_3D ( 'NONE', #183, #110, #151 ) ;
#163 = CARTESIAN_POINT ( 'NONE',  ( 115.0000000000000000, 0.0000000000000000000, 0.0000000000000000000 ) ) ;
#164 = ORIENTED_EDGE ( 'NONE', *, *, #243, .T. ) ;
#165 = EDGE_CURVE ( 'NONE', #230, #180, #105, .T. ) ;
#166 = APPROVAL_ROLE ( '' ) ;
#167 = CARTESIAN_POINT ( 'NONE',  ( 115.0000000000000000, 0.0000000000000000000, 0.0000000000000000000 ) ) ;
#168 = EDGE_CURVE ( 'NONE', #98, #92, #247, .T. ) ;
#169 = APPROVAL_ROLE ( '' ) ;
#170 = ORIENTED_EDGE ( 'NONE', *, *, #212, .F. ) ;
#171 = EDGE_LOOP ( 'NONE', ( #89, #149 ) ) ;
#172 = ORIENTED_EDGE ( 'NONE', *, *, #58, .T. ) ;
#173 = CARTESIAN_POINT ( 'NONE',  ( 115.0000000000000000, 0.0000000000000000000, -1.649999999999989900 ) ) ;
#174 = DIRECTION ( 'NONE',  ( 0.0000000000000000000, 0.0000000000000000000, -1.000000000000000000 ) ) ;
#175 = DIRECTION ( 'NONE',  ( 1.000000000000000000, -0.0000000000000000000, -0.0000000000000000000 ) ) ;
#176 = VECTOR ( 'NONE', #260, 1000.000000000000000 ) ;
#177 = CARTESIAN_POINT ( 'NONE',  ( -115.0000000000000000, 4.898587196589412800E-016, -4.000000000000000000 ) ) ;
#178 = AXIS2_PLACEMENT_3D ( 'NONE', #163, #213, #46 ) ;
#179 =( NAMED_UNIT ( * ) SI_UNIT ( $, .STERADIAN. ) SOLID_ANGLE_UNIT ( ) );
#180 = VERTEX_POINT ( 'NONE', #43 ) ;
#181 = ORIENTED_EDGE ( 'NONE', *, *, #35, .F. ) ;
#182 = CC_DESIGN_PERSON_AND_ORGANIZATION_ASSIGNMENT ( #227, #191, ( #323 ) ) ;
#183 = CARTESIAN_POINT ( 'NONE',  ( 115.0000000000000000, 0.0000000000000000000, 0.0000000000000000000 ) ) ;
#184 = EDGE_CURVE ( 'NONE', #210, #117, #116, .T. ) ;
#185 = AXIS2_PLACEMENT_3D ( 'NONE', #358, #328, #200 ) ;
#186 = CARTESIAN_POINT ( 'NONE',  ( 115.0000000000000000, 2.020667218593125400E-016, 1.649999999999993900 ) ) ;
#187 = EDGE_LOOP ( 'NONE', ( #361, #26, #190, #111 ) ) ;
#188 = CARTESIAN_POINT ( 'NONE',  ( -103.5000000000000100, 0.0000000000000000000, 1.649999999999988400 ) ) ;
#189 = EDGE_CURVE ( 'NONE', #180, #230, #148, .T. ) ;
#190 = ORIENTED_EDGE ( 'NONE', *, *, #184, .T. ) ;
#191 = PERSON_AND_ORGANIZATION_ROLE ( 'creator' ) ;
#192 = DIRECTION ( 'NONE',  ( 0.0000000000000000000, 0.0000000000000000000, 1.000000000000000000 ) ) ;
#193 = AXIS2_PLACEMENT_3D ( 'NONE', #158, #374, #59 ) ;
#194 = COORDINATED_UNIVERSAL_TIME_OFFSET ( 1, 0, .AHEAD. ) ;
#195 = CARTESIAN_POINT ( 'NONE',  ( -103.5000000000000100, 2.020667218593118500E-016, -1.649999999999988400 ) ) ;
#196 = DIRECTION ( 'NONE',  ( 1.000000000000000000, -0.0000000000000000000, -0.0000000000000000000 ) ) ;
#197 = VECTOR ( 'NONE', #47, 1000.000000000000000 ) ;
#198 = EDGE_CURVE ( 'NONE', #117, #210, #309, .T. ) ;
#199 = COORDINATED_UNIVERSAL_TIME_OFFSET ( 1, 0, .AHEAD. ) ;
#200 = DIRECTION ( 'NONE',  ( 0.0000000000000000000, 0.0000000000000000000, 1.000000000000000000 ) ) ;
#201 = DATE_AND_TIME ( #297, #371 ) ;
#202 = ORIENTED_EDGE ( 'NONE', *, *, #122, .T. ) ;
#203 = CLOSED_SHELL ( 'NONE', ( #10, #259, #264, #130, #102, #4, #225, #143, #217, #55, #136, #229 ) ) ;
#204 = CIRCLE ( 'NONE', #114, 1.649999999999989900 ) ;
#205 = COORDINATED_UNIVERSAL_TIME_OFFSET ( 1, 0, .AHEAD. ) ;
#206 = EDGE_LOOP ( 'NONE', ( #31, #344 ) ) ;
#207 = PLANE ( 'NONE',  #193 ) ;
#208 = DIRECTION ( 'NONE',  ( -1.000000000000000000, -0.0000000000000000000, -0.0000000000000000000 ) ) ;
#209 = CIRCLE ( 'NONE', #66, 1.649999999999989900 ) ;
#210 = VERTEX_POINT ( 'NONE', #349 ) ;
#211 = DIRECTION ( 'NONE',  ( -1.000000000000000000, -0.0000000000000000000, -0.0000000000000000000 ) ) ;
#212 = EDGE_CURVE ( 'NONE', #12, #140, #377, .T. ) ;
#213 = DIRECTION ( 'NONE',  ( 1.000000000000000000, -0.0000000000000000000, -0.0000000000000000000 ) ) ;
#214 = PERSON_AND_ORGANIZATION ( #23, #305 ) ;
#215 = LINE ( 'NONE', #296, #63 ) ;
#216 = LINE ( 'NONE', #195, #343 ) ;
#217 = ADVANCED_FACE ( 'NONE', ( #141 ), #314, .F. ) ;
#218 = PERSON_AND_ORGANIZATION ( #23, #305 ) ;
#219 = FACE_OUTER_BOUND ( 'NONE', #171, .T. ) ;
#220 = DESIGN_CONTEXT ( 'detailed design', #282, 'design' ) ;
#221 = VERTEX_POINT ( 'NONE', #354 ) ;
#222 = DIRECTION ( 'NONE',  ( -1.000000000000000000, -0.0000000000000000000, -0.0000000000000000000 ) ) ;
#223 = DIRECTION ( 'NONE',  ( -1.000000000000000000, -0.0000000000000000000, -0.0000000000000000000 ) ) ;
#224 = DIRECTION ( 'NONE',  ( 0.0000000000000000000, 0.0000000000000000000, 1.000000000000000000 ) ) ;
#225 = ADVANCED_FACE ( 'NONE', ( #125, #103 ), #326, .T. ) ;
#226 = APPROVAL_PERSON_ORGANIZATION ( #40, #79, #169 ) ;
#227 = PERSON_AND_ORGANIZATION ( #23, #305 ) ;
#228 =( LENGTH_UNIT ( ) NAMED_UNIT ( * ) SI_UNIT ( .MILLI., .METRE. ) );
#229 = ADVANCED_FACE ( 'NONE', ( #1 ), #146, .F. ) ;
#230 = VERTEX_POINT ( 'NONE', #13 ) ;
#231 = EDGE_CURVE ( 'NONE', #230, #53, #215, .T. ) ;
#232 = CC_DESIGN_PERSON_AND_ORGANIZATION_ASSIGNMENT ( #218, #22, ( #93 ) ) ;
#233 = DIRECTION ( 'NONE',  ( 0.0000000000000000000, 0.0000000000000000000, -1.000000000000000000 ) ) ;
#234 = SHAPE_DEFINITION_REPRESENTATION ( #286, #83 ) ;
#235 = CIRCLE ( 'NONE', #157, 4.000000000000000000 ) ;
#236 = CARTESIAN_POINT ( 'NONE',  ( -115.0000000000000000, 0.0000000000000000000, 0.0000000000000000000 ) ) ;
#237 = PERSON_AND_ORGANIZATION ( #23, #305 ) ;
#238 = LINE ( 'NONE', #240, #342 ) ;
#239 = PRODUCT_DEFINITION_FORMATION_WITH_SPECIFIED_SOURCE ( 'ANY', '', #93, .NOT_KNOWN. ) ;
#240 = CARTESIAN_POINT ( 'NONE',  ( 115.0000000000000000, 4.898587196589412800E-016, -4.000000000000000000 ) ) ;
#241 = EDGE_CURVE ( 'NONE', #92, #117, #284, .T. ) ;
#242 = LOCAL_TIME ( 14, 53, 2.000000000000000000, #50 ) ;
#243 = EDGE_CURVE ( 'NONE', #221, #92, #5, .T. ) ;
#244 = ORIENTED_EDGE ( 'NONE', *, *, #231, .F. ) ;
#245 = ORIENTED_EDGE ( 'NONE', *, *, #338, .T. ) ;
#246 = DIRECTION ( 'NONE',  ( 0.0000000000000000000, 0.0000000000000000000, 1.000000000000000000 ) ) ;
#247 = CIRCLE ( 'NONE', #276, 1.649999999999997700 ) ;
#248 = UNCERTAINTY_MEASURE_WITH_UNIT (LENGTH_MEASURE( 1.000000000000000100E-005 ), #228, 'distance_accuracy_value', 'NONE');
#249 = ORIENTED_EDGE ( 'NONE', *, *, #142, .T. ) ;
#250 = DATE_TIME_ROLE ( 'creation_date' ) ;
#251 = APPROVAL_STATUS ( 'not_yet_approved' ) ;
#252 = AXIS2_PLACEMENT_3D ( 'NONE', #363, #56, #272 ) ;
#253 = AXIS2_PLACEMENT_3D ( 'NONE', #54, #310, #91 ) ;
#254 = LOCAL_TIME ( 14, 53, 2.000000000000000000, #308 ) ;
#255 = APPLICATION_PROTOCOL_DEFINITION ( 'international standard', 'config_control_design', 1994, #282 ) ;
#256 = FACE_OUTER_BOUND ( 'NONE', #78, .T. ) ;
#257 = EDGE_CURVE ( 'NONE', #322, #291, #204, .T. ) ;
#258 = CARTESIAN_POINT ( 'NONE',  ( 103.5000000000000100, 0.0000000000000000000, 0.0000000000000000000 ) ) ;
#259 = ADVANCED_FACE ( 'NONE', ( #340 ), #68, .F. ) ;
#260 = DIRECTION ( 'NONE',  ( -1.000000000000000000, -0.0000000000000000000, -0.0000000000000000000 ) ) ;
#261 = FACE_OUTER_BOUND ( 'NONE', #270, .T. ) ;
#262 = CARTESIAN_POINT ( 'NONE',  ( 115.0000000000000000, 0.0000000000000000000, 0.0000000000000000000 ) ) ;
#263 = DIRECTION ( 'NONE',  ( 1.000000000000000000, -0.0000000000000000000, -0.0000000000000000000 ) ) ;
#264 = ADVANCED_FACE ( 'NONE', ( #294 ), #72, .F. ) ;
#265 = AXIS2_PLACEMENT_3D ( 'NONE', #275, #37, #85 ) ;
#266 = ORIENTED_EDGE ( 'NONE', *, *, #165, .F. ) ;
#267 = AXIS2_PLACEMENT_3D ( 'NONE', #289, #128, #16 ) ;
#268 = DIRECTION ( 'NONE',  ( -1.000000000000000000, -0.0000000000000000000, -0.0000000000000000000 ) ) ;
#269 = CC_DESIGN_APPROVAL ( #339, ( #323 ) ) ;
#270 = EDGE_LOOP ( 'NONE', ( #132, #245, #62 ) ) ;
#271 = ORIENTED_EDGE ( 'NONE', *, *, #341, .F. ) ;
#272 = DIRECTION ( 'NONE',  ( 0.0000000000000000000, 0.0000000000000000000, -1.000000000000000000 ) ) ;
#273 = AXIS2_PLACEMENT_3D ( 'NONE', #167, #312, #293 ) ;
#274 = APPROVAL_DATE_TIME ( #137, #79 ) ;
#275 = CARTESIAN_POINT ( 'NONE',  ( 115.0000000000000000, 0.0000000000000000000, 0.0000000000000000000 ) ) ;
#276 = AXIS2_PLACEMENT_3D ( 'NONE', #258, #134, #133 ) ;
#277 = DIRECTION ( 'NONE',  ( 0.0000000000000000000, 0.0000000000000000000, 1.000000000000000000 ) ) ;
#278 = APPROVAL_PERSON_ORGANIZATION ( #115, #7, #376 ) ;
#279 = ORIENTED_EDGE ( 'NONE', *, *, #198, .T. ) ;
#280 = APPROVAL_STATUS ( 'not_yet_approved' ) ;
#281 = ORIENTED_EDGE ( 'NONE', *, *, #231, .T. ) ;
#282 = APPLICATION_CONTEXT ( 'configuration controlled 3d designs of mechanical parts and assemblies' ) ;
#283 =( GEOMETRIC_REPRESENTATION_CONTEXT ( 3 ) GLOBAL_UNCERTAINTY_ASSIGNED_CONTEXT ( ( #248 ) ) GLOBAL_UNIT_ASSIGNED_CONTEXT ( ( #228, #74, #179 ) ) REPRESENTATION_CONTEXT ( 'NONE', 'WORKASPACE' ) );
#284 = LINE ( 'NONE', #365, #84 ) ;
#285 = ORIENTED_EDGE ( 'NONE', *, *, #165, .T. ) ;
#286 = PRODUCT_DEFINITION_SHAPE ( 'NONE', 'NONE',  #323 ) ;
#287 = EDGE_LOOP ( 'NONE', ( #42, #266, #281, #202 ) ) ;
#288 = PERSON_AND_ORGANIZATION_ROLE ( 'creator' ) ;
#289 = CARTESIAN_POINT ( 'NONE',  ( 103.5000000000000100, 0.0000000000000000000, 0.0000000000000000000 ) ) ;
#290 = FACE_BOUND ( 'NONE', #34, .T. ) ;
#291 = VERTEX_POINT ( 'NONE', #108 ) ;
#292 = EDGE_LOOP ( 'NONE', ( #2, #170, #172, #378 ) ) ;
#293 = DIRECTION ( 'NONE',  ( 0.0000000000000000000, 0.0000000000000000000, -1.000000000000000000 ) ) ;
#294 = FACE_OUTER_BOUND ( 'NONE', #187, .T. ) ;
#295 = ORIENTED_EDGE ( 'NONE', *, *, #189, .F. ) ;
#296 = CARTESIAN_POINT ( 'NONE',  ( 115.0000000000000000, 0.0000000000000000000, 4.000000000000000000 ) ) ;
#297 = CALENDAR_DATE ( 2024, 22, 5 ) ;
#298 = DIRECTION ( 'NONE',  ( 0.0000000000000000000, 0.0000000000000000000, 1.000000000000000000 ) ) ;
#299 = FACE_OUTER_BOUND ( 'NONE', #106, .T. ) ;
#300 = LINE ( 'NONE', #145, #379 ) ;
#301 = APPROVAL_DATE_TIME ( #6, #7 ) ;
#302 = ORIENTED_EDGE ( 'NONE', *, *, #243, .F. ) ;
#303 = VECTOR ( 'NONE', #369, 1000.000000000000000 ) ;
#304 = AXIS2_PLACEMENT_3D ( 'NONE', #318, #346, #192 ) ;
#305 = ORGANIZATION ( 'UNSPECIFIED', 'UNSPECIFIED', '' ) ;
#306 = FACE_OUTER_BOUND ( 'NONE', #30, .T. ) ;
#307 = CARTESIAN_POINT ( 'NONE',  ( -115.0000000000000000, 2.020667218593119400E-016, -1.649999999999989300 ) ) ;
#308 = COORDINATED_UNIVERSAL_TIME_OFFSET ( 1, 0, .AHEAD. ) ;
#309 = CIRCLE ( 'NONE', #316, 1.649999999999989900 ) ;
#310 = DIRECTION ( 'NONE',  ( 0.0000000000000000000, 0.0000000000000000000, 1.000000000000000000 ) ) ;
#311 = MECHANICAL_CONTEXT ( 'NONE', #121, 'mechanical' ) ;
#312 = DIRECTION ( 'NONE',  ( 1.000000000000000000, 0.0000000000000000000, 0.0000000000000000000 ) ) ;
#313 = CARTESIAN_POINT ( 'NONE',  ( -115.0000000000000000, 0.0000000000000000000, 1.649999999999989300 ) ) ;
#314 = CONICAL_SURFACE ( 'NONE', #100, 1.649999999999997700, 1.029744258676652500 ) ;
#315 = FACE_OUTER_BOUND ( 'NONE', #334, .T. ) ;
#316 = AXIS2_PLACEMENT_3D ( 'NONE', #262, #175, #11 ) ;
#317 = ORIENTED_EDGE ( 'NONE', *, *, #353, .T. ) ;
#318 = CARTESIAN_POINT ( 'NONE',  ( -103.5000000000000100, 0.0000000000000000000, 0.0000000000000000000 ) ) ;
#319 = CARTESIAN_POINT ( 'NONE',  ( 103.5000000000000100, 0.0000000000000000000, 0.0000000000000000000 ) ) ;
#320 = CARTESIAN_POINT ( 'NONE',  ( 115.0000000000000000, 0.0000000000000000000, 0.0000000000000000000 ) ) ;
#321 = CYLINDRICAL_SURFACE ( 'NONE', #185, 1.649999999999989300 ) ;
#322 = VERTEX_POINT ( 'NONE', #325 ) ;
#323 = PRODUCT_DEFINITION ( 'UNKNOWN', '', #239, #220 ) ;
#324 = DIRECTION ( 'NONE',  ( 1.000000000000000000, -0.0000000000000000000, -0.0000000000000000000 ) ) ;
#325 = CARTESIAN_POINT ( 'NONE',  ( -115.0000000000000000, 2.020667218593120400E-016, -1.649999999999989700 ) ) ;
#326 = PLANE ( 'NONE',  #162 ) ;
#327 = ORIENTED_EDGE ( 'NONE', *, *, #368, .T. ) ;
#328 = DIRECTION ( 'NONE',  ( -1.000000000000000000, -0.0000000000000000000, -0.0000000000000000000 ) ) ;
#329 = DIRECTION ( 'NONE',  ( 0.0000000000000000000, 0.0000000000000000000, 1.000000000000000000 ) ) ;
#330 = ORIENTED_EDGE ( 'NONE', *, *, #189, .T. ) ;
#331 = DIRECTION ( 'NONE',  ( -1.000000000000000000, -0.0000000000000000000, -0.0000000000000000000 ) ) ;
#332 = CC_DESIGN_APPROVAL ( #7, ( #239 ) ) ;
#333 = ORIENTED_EDGE ( 'NONE', *, *, #82, .F. ) ;
#334 = EDGE_LOOP ( 'NONE', ( #295, #249, #81, #244 ) ) ;
#335 = DIRECTION ( 'NONE',  ( -1.000000000000000000, -0.0000000000000000000, -0.0000000000000000000 ) ) ;
#336 = DIRECTION ( 'NONE',  ( -1.000000000000000000, -0.0000000000000000000, -0.0000000000000000000 ) ) ;
#337 = LINE ( 'NONE', #313, #176 ) ;
#338 = EDGE_CURVE ( 'NONE', #48, #12, #300, .T. ) ;
#339 = APPROVAL ( #251, 'UNSPECIFIED' ) ;
#340 = FACE_OUTER_BOUND ( 'NONE', #380, .T. ) ;
#341 = EDGE_CURVE ( 'NONE', #92, #98, #15, .T. ) ;
#342 = VECTOR ( 'NONE', #208, 1000.000000000000000 ) ;
#343 = VECTOR ( 'NONE', #99, 999.9999999999998900 ) ;
#344 = ORIENTED_EDGE ( 'NONE', *, *, #184, .F. ) ;
#345 = DATE_TIME_ROLE ( 'classification_date' ) ;
#346 = DIRECTION ( 'NONE',  ( -1.000000000000000000, -0.0000000000000000000, -0.0000000000000000000 ) ) ;
#347 = CARTESIAN_POINT ( 'NONE',  ( 115.0000000000000000, 0.0000000000000000000, 0.0000000000000000000 ) ) ;
#348 = DIRECTION ( 'NONE',  ( 0.0000000000000000000, 0.0000000000000000000, -1.000000000000000000 ) ) ;
#349 = CARTESIAN_POINT ( 'NONE',  ( 115.0000000000000000, 2.020667218593122900E-016, 1.649999999999989900 ) ) ;
#350 = CONICAL_SURFACE ( 'NONE', #267, 1.649999999999997700, 1.029744258676652500 ) ;
#351 = AXIS2_PLACEMENT_3D ( 'NONE', #135, #263, #174 ) ;
#352 = EDGE_LOOP ( 'NONE', ( #285, #330 ) ) ;
#353 = EDGE_CURVE ( 'NONE', #140, #322, #57, .T. ) ;
#354 = CARTESIAN_POINT ( 'NONE',  ( 102.5085799786045300, -3.469446951953614200E-015, 0.0000000000000000000 ) ) ;
#355 = CONICAL_SURFACE ( 'NONE', #44, 1.649999999999988400, 1.029744258676650100 ) ;
#356 = FACE_OUTER_BOUND ( 'NONE', #287, .T. ) ;
#357 = CC_DESIGN_PERSON_AND_ORGANIZATION_ASSIGNMENT ( #214, #288, ( #239 ) ) ;
#358 = CARTESIAN_POINT ( 'NONE',  ( -115.0000000000000000, 0.0000000000000000000, 0.0000000000000000000 ) ) ;
#359 = CC_DESIGN_PERSON_AND_ORGANIZATION_ASSIGNMENT ( #24, #127, ( #382 ) ) ;
#360 = DIRECTION ( 'NONE',  ( 1.000000000000000000, 0.0000000000000000000, 0.0000000000000000000 ) ) ;
#361 = ORIENTED_EDGE ( 'NONE', *, *, #168, .F. ) ;
#362 = CARTESIAN_POINT ( 'NONE',  ( -103.5000000000000100, 2.020667218593118500E-016, -1.649999999999988400 ) ) ;
#363 = CARTESIAN_POINT ( 'NONE',  ( -115.0000000000000000, 0.0000000000000000000, 0.0000000000000000000 ) ) ;
#364 = CC_DESIGN_DATE_AND_TIME_ASSIGNMENT ( #153, #345, ( #382 ) ) ;
#365 = CARTESIAN_POINT ( 'NONE',  ( 115.0000000000000000, 0.0000000000000000000, -1.649999999999993900 ) ) ;
#366 = CALENDAR_DATE ( 2024, 22, 5 ) ;
#367 = ORIENTED_EDGE ( 'NONE', *, *, #341, .T. ) ;
#368 = EDGE_CURVE ( 'NONE', #221, #98, #138, .T. ) ;
#369 = DIRECTION ( 'NONE',  ( 0.5150380749100558200, 0.0000000000000000000, -0.8571673007021113300 ) ) ;
#370 = CARTESIAN_POINT ( 'NONE',  ( -102.5085799786045300, -3.059515509201426700E-015, 0.0000000000000000000 ) ) ;
#371 = LOCAL_TIME ( 14, 53, 2.000000000000000000, #199 ) ;
#372 = CIRCLE ( 'NONE', #304, 1.649999999999988400 ) ;
#373 = DIRECTION ( 'NONE',  ( 0.0000000000000000000, 0.0000000000000000000, -1.000000000000000000 ) ) ;
#374 = DIRECTION ( 'NONE',  ( 1.000000000000000000, 0.0000000000000000000, 0.0000000000000000000 ) ) ;
#375 = PRODUCT_RELATED_PRODUCT_CATEGORY ( 'detail', '', ( #93 ) ) ;
#376 = APPROVAL_ROLE ( '' ) ;
#377 = CIRCLE ( 'NONE', #65, 1.649999999999988400 ) ;
#378 = ORIENTED_EDGE ( 'NONE', *, *, #27, .T. ) ;
#379 = VECTOR ( 'NONE', #3, 999.9999999999998900 ) ;
#380 = EDGE_LOOP ( 'NONE', ( #80, #154, #49 ) ) ;
#381 = EDGE_CURVE ( 'NONE', #48, #140, #216, .T. ) ;
#382 = SECURITY_CLASSIFICATION ( '', '', #96 ) ;
#383 = CARTESIAN_POINT ( 'NONE',  ( 103.5000000000000100, 2.020667218593129800E-016, 1.649999999999997700 ) ) ;
ENDSEC;
END-ISO-10303-21;
