ISO-10303-21;
HEADER;
/* Generated by software containing ST-Developer
 * from STEP Tools, Inc. (www.steptools.com) 
 */
/* OPTION: using custom renumber hook */

FILE_DESCRIPTION(
/* description */ ('STEP AP242',
'CAx-IF Rec.Pracs.---Representation and Presentation of Product Manufa
cturing Information (PMI)---4.0---2014-10-13',
'CAx-IF Rec.Pracs.---3D Tessellated Geometry---0.4---2014-09-14','2;1'),

/* implementation_level */ '2;1');

FILE_NAME(
/* name */ '66449f501878830958c72190',
/* time_stamp */ '2024-05-15T11:41:05Z',
/* author */ (''),
/* organization */ (''),
/* preprocessor_version */ 'ST-DEVELOPER v20',
/* originating_system */ '  ',
/* authorisation */ '  ');

FILE_SCHEMA (('AP242_MANAGED_MODEL_BASED_3D_ENGINEERING_MIM_LF { 1 0 10303 442 1 1 4 }'));
ENDSEC;

DATA;
#10=SHAPE_REPRESENTATION_RELATIONSHIP('','',#324,#11);
#11=ADVANCED_BREP_SHAPE_REPRESENTATION('',(#322),#543);
#12=CYLINDRICAL_SURFACE('',#333,0.003);
#13=CYLINDRICAL_SURFACE('',#337,0.003);
#14=CYLINDRICAL_SURFACE('',#341,0.003);
#15=CYLINDRICAL_SURFACE('',#345,0.003);
#16=CYLINDRICAL_SURFACE('',#351,0.00385);
#17=LINE('',#460,#45);
#18=LINE('',#464,#46);
#19=LINE('',#466,#47);
#20=LINE('',#470,#48);
#21=LINE('',#473,#49);
#22=LINE('',#475,#50);
#23=LINE('',#477,#51);
#24=LINE('',#481,#52);
#25=LINE('',#485,#53);
#26=LINE('',#487,#54);
#27=LINE('',#489,#55);
#28=LINE('',#493,#56);
#29=LINE('',#497,#57);
#30=LINE('',#499,#58);
#31=LINE('',#501,#59);
#32=LINE('',#505,#60);
#33=LINE('',#509,#61);
#34=LINE('',#511,#62);
#35=LINE('',#513,#63);
#36=LINE('',#524,#64);
#37=LINE('',#526,#65);
#38=LINE('',#528,#66);
#39=LINE('',#530,#67);
#40=LINE('',#532,#68);
#41=LINE('',#534,#69);
#42=LINE('',#536,#70);
#43=LINE('',#538,#71);
#44=LINE('',#540,#72);
#45=VECTOR('',#365,1.);
#46=VECTOR('',#370,1.);
#47=VECTOR('',#373,1.);
#48=VECTOR('',#378,1.);
#49=VECTOR('',#379,1.);
#50=VECTOR('',#380,1.);
#51=VECTOR('',#381,1.);
#52=VECTOR('',#386,1.);
#53=VECTOR('',#391,1.);
#54=VECTOR('',#392,1.);
#55=VECTOR('',#393,1.);
#56=VECTOR('',#398,1.);
#57=VECTOR('',#403,1.);
#58=VECTOR('',#404,1.);
#59=VECTOR('',#405,1.);
#60=VECTOR('',#410,1.);
#61=VECTOR('',#415,1.);
#62=VECTOR('',#416,1.);
#63=VECTOR('',#417,1.);
#64=VECTOR('',#436,1.);
#65=VECTOR('',#439,1.);
#66=VECTOR('',#440,1.);
#67=VECTOR('',#441,1.);
#68=VECTOR('',#444,1.);
#69=VECTOR('',#445,1.);
#70=VECTOR('',#448,1.);
#71=VECTOR('',#449,1.);
#72=VECTOR('',#452,1.);
#73=ORIENTED_EDGE('',*,*,#155,.T.);
#74=ORIENTED_EDGE('',*,*,#156,.T.);
#75=ORIENTED_EDGE('',*,*,#157,.T.);
#76=ORIENTED_EDGE('',*,*,#158,.T.);
#77=ORIENTED_EDGE('',*,*,#159,.F.);
#78=ORIENTED_EDGE('',*,*,#160,.T.);
#79=ORIENTED_EDGE('',*,*,#161,.T.);
#80=ORIENTED_EDGE('',*,*,#162,.F.);
#81=ORIENTED_EDGE('',*,*,#163,.F.);
#82=ORIENTED_EDGE('',*,*,#164,.T.);
#83=ORIENTED_EDGE('',*,*,#165,.T.);
#84=ORIENTED_EDGE('',*,*,#166,.F.);
#85=ORIENTED_EDGE('',*,*,#167,.F.);
#86=ORIENTED_EDGE('',*,*,#162,.T.);
#87=ORIENTED_EDGE('',*,*,#168,.F.);
#88=ORIENTED_EDGE('',*,*,#169,.F.);
#89=ORIENTED_EDGE('',*,*,#170,.T.);
#90=ORIENTED_EDGE('',*,*,#166,.T.);
#91=ORIENTED_EDGE('',*,*,#171,.T.);
#92=ORIENTED_EDGE('',*,*,#172,.F.);
#93=ORIENTED_EDGE('',*,*,#173,.F.);
#94=ORIENTED_EDGE('',*,*,#169,.T.);
#95=ORIENTED_EDGE('',*,*,#174,.F.);
#96=ORIENTED_EDGE('',*,*,#175,.F.);
#97=ORIENTED_EDGE('',*,*,#176,.T.);
#98=ORIENTED_EDGE('',*,*,#172,.T.);
#99=ORIENTED_EDGE('',*,*,#177,.T.);
#100=ORIENTED_EDGE('',*,*,#178,.F.);
#101=ORIENTED_EDGE('',*,*,#179,.F.);
#102=ORIENTED_EDGE('',*,*,#175,.T.);
#103=ORIENTED_EDGE('',*,*,#180,.T.);
#104=ORIENTED_EDGE('',*,*,#181,.F.);
#105=ORIENTED_EDGE('',*,*,#182,.F.);
#106=ORIENTED_EDGE('',*,*,#178,.T.);
#107=ORIENTED_EDGE('',*,*,#183,.T.);
#108=ORIENTED_EDGE('',*,*,#164,.F.);
#109=ORIENTED_EDGE('',*,*,#184,.F.);
#110=ORIENTED_EDGE('',*,*,#181,.T.);
#111=ORIENTED_EDGE('',*,*,#185,.F.);
#112=ORIENTED_EDGE('',*,*,#163,.T.);
#113=ORIENTED_EDGE('',*,*,#167,.T.);
#114=ORIENTED_EDGE('',*,*,#170,.F.);
#115=ORIENTED_EDGE('',*,*,#173,.T.);
#116=ORIENTED_EDGE('',*,*,#176,.F.);
#117=ORIENTED_EDGE('',*,*,#179,.T.);
#118=ORIENTED_EDGE('',*,*,#182,.T.);
#119=ORIENTED_EDGE('',*,*,#184,.T.);
#120=ORIENTED_EDGE('',*,*,#161,.F.);
#121=ORIENTED_EDGE('',*,*,#183,.F.);
#122=ORIENTED_EDGE('',*,*,#180,.F.);
#123=ORIENTED_EDGE('',*,*,#177,.F.);
#124=ORIENTED_EDGE('',*,*,#174,.T.);
#125=ORIENTED_EDGE('',*,*,#171,.F.);
#126=ORIENTED_EDGE('',*,*,#168,.T.);
#127=ORIENTED_EDGE('',*,*,#165,.F.);
#128=ORIENTED_EDGE('',*,*,#160,.F.);
#129=ORIENTED_EDGE('',*,*,#186,.F.);
#130=ORIENTED_EDGE('',*,*,#155,.F.);
#131=ORIENTED_EDGE('',*,*,#157,.F.);
#132=ORIENTED_EDGE('',*,*,#185,.T.);
#133=ORIENTED_EDGE('',*,*,#187,.F.);
#134=ORIENTED_EDGE('',*,*,#186,.T.);
#135=ORIENTED_EDGE('',*,*,#156,.F.);
#136=ORIENTED_EDGE('',*,*,#188,.F.);
#137=ORIENTED_EDGE('',*,*,#189,.T.);
#138=ORIENTED_EDGE('',*,*,#190,.T.);
#139=ORIENTED_EDGE('',*,*,#187,.T.);
#140=ORIENTED_EDGE('',*,*,#191,.F.);
#141=ORIENTED_EDGE('',*,*,#192,.F.);
#142=ORIENTED_EDGE('',*,*,#188,.T.);
#143=ORIENTED_EDGE('',*,*,#159,.T.);
#144=ORIENTED_EDGE('',*,*,#193,.F.);
#145=ORIENTED_EDGE('',*,*,#194,.F.);
#146=ORIENTED_EDGE('',*,*,#191,.T.);
#147=ORIENTED_EDGE('',*,*,#158,.F.);
#148=ORIENTED_EDGE('',*,*,#190,.F.);
#149=ORIENTED_EDGE('',*,*,#195,.T.);
#150=ORIENTED_EDGE('',*,*,#193,.T.);
#151=ORIENTED_EDGE('',*,*,#189,.F.);
#152=ORIENTED_EDGE('',*,*,#192,.T.);
#153=ORIENTED_EDGE('',*,*,#194,.T.);
#154=ORIENTED_EDGE('',*,*,#195,.F.);
#155=EDGE_CURVE('',#196,#197,#221,.T.);
#156=EDGE_CURVE('',#197,#196,#17,.T.);
#157=EDGE_CURVE('',#198,#196,#222,.T.);
#158=EDGE_CURVE('',#196,#198,#18,.T.);
#159=EDGE_CURVE('',#199,#198,#19,.T.);
#160=EDGE_CURVE('',#199,#198,#223,.T.);
#161=EDGE_CURVE('',#200,#201,#20,.T.);
#162=EDGE_CURVE('',#202,#201,#21,.T.);
#163=EDGE_CURVE('',#203,#202,#22,.T.);
#164=EDGE_CURVE('',#203,#200,#23,.T.);
#165=EDGE_CURVE('',#201,#204,#224,.T.);
#166=EDGE_CURVE('',#205,#204,#24,.T.);
#167=EDGE_CURVE('',#202,#205,#225,.T.);
#168=EDGE_CURVE('',#206,#204,#25,.T.);
#169=EDGE_CURVE('',#207,#206,#26,.T.);
#170=EDGE_CURVE('',#207,#205,#27,.T.);
#171=EDGE_CURVE('',#206,#208,#226,.T.);
#172=EDGE_CURVE('',#209,#208,#28,.T.);
#173=EDGE_CURVE('',#207,#209,#227,.T.);
#174=EDGE_CURVE('',#210,#208,#29,.T.);
#175=EDGE_CURVE('',#211,#210,#30,.T.);
#176=EDGE_CURVE('',#211,#209,#31,.T.);
#177=EDGE_CURVE('',#210,#212,#228,.T.);
#178=EDGE_CURVE('',#213,#212,#32,.T.);
#179=EDGE_CURVE('',#211,#213,#229,.T.);
#180=EDGE_CURVE('',#212,#214,#33,.T.);
#181=EDGE_CURVE('',#215,#214,#34,.T.);
#182=EDGE_CURVE('',#213,#215,#35,.T.);
#183=EDGE_CURVE('',#214,#200,#230,.T.);
#184=EDGE_CURVE('',#215,#203,#231,.T.);
#185=EDGE_CURVE('',#216,#216,#232,.T.);
#186=EDGE_CURVE('',#197,#199,#233,.T.);
#187=EDGE_CURVE('',#197,#199,#36,.T.);
#188=EDGE_CURVE('',#217,#197,#37,.T.);
#189=EDGE_CURVE('',#217,#218,#38,.T.);
#190=EDGE_CURVE('',#218,#196,#39,.T.);
#191=EDGE_CURVE('',#219,#199,#40,.T.);
#192=EDGE_CURVE('',#217,#219,#41,.T.);
#193=EDGE_CURVE('',#220,#198,#42,.T.);
#194=EDGE_CURVE('',#219,#220,#43,.T.);
#195=EDGE_CURVE('',#218,#220,#44,.T.);
#196=VERTEX_POINT('',#458);
#197=VERTEX_POINT('',#459);
#198=VERTEX_POINT('',#463);
#199=VERTEX_POINT('',#467);
#200=VERTEX_POINT('',#471);
#201=VERTEX_POINT('',#472);
#202=VERTEX_POINT('',#474);
#203=VERTEX_POINT('',#476);
#204=VERTEX_POINT('',#480);
#205=VERTEX_POINT('',#482);
#206=VERTEX_POINT('',#486);
#207=VERTEX_POINT('',#488);
#208=VERTEX_POINT('',#492);
#209=VERTEX_POINT('',#494);
#210=VERTEX_POINT('',#498);
#211=VERTEX_POINT('',#500);
#212=VERTEX_POINT('',#504);
#213=VERTEX_POINT('',#506);
#214=VERTEX_POINT('',#510);
#215=VERTEX_POINT('',#512);
#216=VERTEX_POINT('',#519);
#217=VERTEX_POINT('',#527);
#218=VERTEX_POINT('',#529);
#219=VERTEX_POINT('',#533);
#220=VERTEX_POINT('',#537);
#221=CIRCLE('',#327,0.00385);
#222=CIRCLE('',#329,0.00385);
#223=CIRCLE('',#331,0.00385);
#224=CIRCLE('',#334,0.003);
#225=CIRCLE('',#335,0.003);
#226=CIRCLE('',#338,0.003);
#227=CIRCLE('',#339,0.003);
#228=CIRCLE('',#342,0.003);
#229=CIRCLE('',#343,0.003);
#230=CIRCLE('',#346,0.003);
#231=CIRCLE('',#347,0.003);
#232=CIRCLE('',#349,0.00385);
#233=CIRCLE('',#352,0.00385);
#234=EDGE_LOOP('',(#73,#74));
#235=EDGE_LOOP('',(#75,#76));
#236=EDGE_LOOP('',(#77,#78));
#237=EDGE_LOOP('',(#79,#80,#81,#82));
#238=EDGE_LOOP('',(#83,#84,#85,#86));
#239=EDGE_LOOP('',(#87,#88,#89,#90));
#240=EDGE_LOOP('',(#91,#92,#93,#94));
#241=EDGE_LOOP('',(#95,#96,#97,#98));
#242=EDGE_LOOP('',(#99,#100,#101,#102));
#243=EDGE_LOOP('',(#103,#104,#105,#106));
#244=EDGE_LOOP('',(#107,#108,#109,#110));
#245=EDGE_LOOP('',(#111));
#246=EDGE_LOOP('',(#112,#113,#114,#115,#116,#117,#118,#119));
#247=EDGE_LOOP('',(#120,#121,#122,#123,#124,#125,#126,#127));
#248=EDGE_LOOP('',(#128,#129,#130,#131));
#249=EDGE_LOOP('',(#132));
#250=EDGE_LOOP('',(#133,#134));
#251=EDGE_LOOP('',(#135,#136,#137,#138));
#252=EDGE_LOOP('',(#139,#140,#141,#142));
#253=EDGE_LOOP('',(#143,#144,#145,#146));
#254=EDGE_LOOP('',(#147,#148,#149,#150));
#255=EDGE_LOOP('',(#151,#152,#153,#154));
#256=FACE_BOUND('',#234,.T.);
#257=FACE_BOUND('',#235,.T.);
#258=FACE_BOUND('',#236,.T.);
#259=FACE_BOUND('',#237,.T.);
#260=FACE_BOUND('',#238,.T.);
#261=FACE_BOUND('',#239,.T.);
#262=FACE_BOUND('',#240,.T.);
#263=FACE_BOUND('',#241,.T.);
#264=FACE_BOUND('',#242,.T.);
#265=FACE_BOUND('',#243,.T.);
#266=FACE_BOUND('',#244,.T.);
#267=FACE_BOUND('',#245,.T.);
#268=FACE_BOUND('',#246,.T.);
#269=FACE_BOUND('',#247,.T.);
#270=FACE_BOUND('',#248,.T.);
#271=FACE_BOUND('',#249,.T.);
#272=FACE_BOUND('',#250,.T.);
#273=FACE_BOUND('',#251,.T.);
#274=FACE_BOUND('',#252,.T.);
#275=FACE_BOUND('',#253,.T.);
#276=FACE_BOUND('',#254,.T.);
#277=FACE_BOUND('',#255,.T.);
#278=PLANE('',#326);
#279=PLANE('',#328);
#280=PLANE('',#330);
#281=PLANE('',#332);
#282=PLANE('',#336);
#283=PLANE('',#340);
#284=PLANE('',#344);
#285=PLANE('',#348);
#286=PLANE('',#350);
#287=PLANE('',#353);
#288=PLANE('',#354);
#289=PLANE('',#355);
#290=PLANE('',#356);
#291=PLANE('',#357);
#292=PLANE('',#358);
#293=ADVANCED_FACE('',(#256),#278,.T.);
#294=ADVANCED_FACE('',(#257),#279,.T.);
#295=ADVANCED_FACE('',(#258),#280,.T.);
#296=ADVANCED_FACE('',(#259),#281,.F.);
#297=ADVANCED_FACE('',(#260),#12,.T.);
#298=ADVANCED_FACE('',(#261),#282,.T.);
#299=ADVANCED_FACE('',(#262),#13,.T.);
#300=ADVANCED_FACE('',(#263),#283,.T.);
#301=ADVANCED_FACE('',(#264),#14,.T.);
#302=ADVANCED_FACE('',(#265),#284,.F.);
#303=ADVANCED_FACE('',(#266),#15,.T.);
#304=ADVANCED_FACE('',(#267,#268),#285,.T.);
#305=ADVANCED_FACE('',(#269),#286,.F.);
#306=ADVANCED_FACE('',(#270,#271),#16,.T.);
#307=ADVANCED_FACE('',(#272),#287,.T.);
#308=ADVANCED_FACE('',(#273),#288,.T.);
#309=ADVANCED_FACE('',(#274),#289,.F.);
#310=ADVANCED_FACE('',(#275),#290,.F.);
#311=ADVANCED_FACE('',(#276),#291,.T.);
#312=ADVANCED_FACE('',(#277),#292,.T.);
#313=CLOSED_SHELL('',(#293,#294,#295,#296,#297,#298,#299,#300,#301,#302,
#303,#304,#305,#306,#307,#308,#309,#310,#311,#312));
#314=STYLED_ITEM('',(#315),#322);
#315=PRESENTATION_STYLE_ASSIGNMENT((#316));
#316=SURFACE_STYLE_USAGE(.BOTH.,#317);
#317=SURFACE_SIDE_STYLE('',(#318));
#318=SURFACE_STYLE_FILL_AREA(#319);
#319=FILL_AREA_STYLE('',(#320));
#320=FILL_AREA_STYLE_COLOUR('',#321);
#321=COLOUR_RGB('',0.650980392156863,0.486274509803922,0.0196078431372549);
#322=MANIFOLD_SOLID_BREP('Axe_principal',#313);
#323=SHAPE_DEFINITION_REPRESENTATION(#548,#324);
#324=SHAPE_REPRESENTATION('Axe_principal',(#325),#543);
#325=AXIS2_PLACEMENT_3D('',#455,#359,#360);
#326=AXIS2_PLACEMENT_3D('',#456,#361,#362);
#327=AXIS2_PLACEMENT_3D('',#457,#363,#364);
#328=AXIS2_PLACEMENT_3D('',#461,#366,#367);
#329=AXIS2_PLACEMENT_3D('',#462,#368,#369);
#330=AXIS2_PLACEMENT_3D('',#465,#371,#372);
#331=AXIS2_PLACEMENT_3D('',#468,#374,#375);
#332=AXIS2_PLACEMENT_3D('',#469,#376,#377);
#333=AXIS2_PLACEMENT_3D('',#478,#382,#383);
#334=AXIS2_PLACEMENT_3D('',#479,#384,#385);
#335=AXIS2_PLACEMENT_3D('',#483,#387,#388);
#336=AXIS2_PLACEMENT_3D('',#484,#389,#390);
#337=AXIS2_PLACEMENT_3D('',#490,#394,#395);
#338=AXIS2_PLACEMENT_3D('',#491,#396,#397);
#339=AXIS2_PLACEMENT_3D('',#495,#399,#400);
#340=AXIS2_PLACEMENT_3D('',#496,#401,#402);
#341=AXIS2_PLACEMENT_3D('',#502,#406,#407);
#342=AXIS2_PLACEMENT_3D('',#503,#408,#409);
#343=AXIS2_PLACEMENT_3D('',#507,#411,#412);
#344=AXIS2_PLACEMENT_3D('',#508,#413,#414);
#345=AXIS2_PLACEMENT_3D('',#514,#418,#419);
#346=AXIS2_PLACEMENT_3D('',#515,#420,#421);
#347=AXIS2_PLACEMENT_3D('',#516,#422,#423);
#348=AXIS2_PLACEMENT_3D('',#517,#424,#425);
#349=AXIS2_PLACEMENT_3D('',#518,#426,#427);
#350=AXIS2_PLACEMENT_3D('',#520,#428,#429);
#351=AXIS2_PLACEMENT_3D('',#521,#430,#431);
#352=AXIS2_PLACEMENT_3D('',#522,#432,#433);
#353=AXIS2_PLACEMENT_3D('',#523,#434,#435);
#354=AXIS2_PLACEMENT_3D('',#525,#437,#438);
#355=AXIS2_PLACEMENT_3D('',#531,#442,#443);
#356=AXIS2_PLACEMENT_3D('',#535,#446,#447);
#357=AXIS2_PLACEMENT_3D('',#539,#450,#451);
#358=AXIS2_PLACEMENT_3D('',#541,#453,#454);
#359=DIRECTION('',(0.,0.,1.));
#360=DIRECTION('',(1.,0.,0.));
#361=DIRECTION('',(0.,0.,1.));
#362=DIRECTION('',(1.,0.,0.));
#363=DIRECTION('',(0.,0.,1.));
#364=DIRECTION('',(1.,0.,0.));
#365=DIRECTION('',(-1.,-1.59303212122948E-16,0.));
#366=DIRECTION('',(0.,0.,1.));
#367=DIRECTION('',(1.,0.,0.));
#368=DIRECTION('',(0.,0.,1.));
#369=DIRECTION('',(1.,0.,0.));
#370=DIRECTION('',(-1.59303212122948E-16,1.,0.));
#371=DIRECTION('',(0.,0.,1.));
#372=DIRECTION('',(1.,0.,0.));
#373=DIRECTION('',(-1.,-1.59303212122948E-16,0.));
#374=DIRECTION('',(0.,0.,1.));
#375=DIRECTION('',(1.,0.,0.));
#376=DIRECTION('',(0.,-1.,0.));
#377=DIRECTION('',(0.,0.,-1.));
#378=DIRECTION('',(-1.,0.,0.));
#379=DIRECTION('',(0.,0.,-1.));
#380=DIRECTION('',(-1.,0.,0.));
#381=DIRECTION('',(0.,0.,-1.));
#382=DIRECTION('',(0.,0.,-1.));
#383=DIRECTION('',(-1.,0.,0.));
#384=DIRECTION('',(0.,0.,1.));
#385=DIRECTION('',(1.,0.,0.));
#386=DIRECTION('',(0.,0.,-1.));
#387=DIRECTION('',(0.,0.,1.));
#388=DIRECTION('',(1.,0.,0.));
#389=DIRECTION('',(-1.,-3.1540426835942E-16,0.));
#390=DIRECTION('',(3.1540426835942E-16,-1.,0.));
#391=DIRECTION('',(-3.1540426835942E-16,1.,0.));
#392=DIRECTION('',(0.,0.,-1.));
#393=DIRECTION('',(-3.1540426835942E-16,1.,0.));
#394=DIRECTION('',(0.,0.,-1.));
#395=DIRECTION('',(-1.,0.,0.));
#396=DIRECTION('',(0.,0.,1.));
#397=DIRECTION('',(1.,0.,0.));
#398=DIRECTION('',(0.,0.,-1.));
#399=DIRECTION('',(0.,0.,1.));
#400=DIRECTION('',(1.,0.,0.));
#401=DIRECTION('',(0.,-1.,0.));
#402=DIRECTION('',(0.,0.,-1.));
#403=DIRECTION('',(-1.,0.,0.));
#404=DIRECTION('',(0.,0.,-1.));
#405=DIRECTION('',(-1.,0.,0.));
#406=DIRECTION('',(0.,0.,-1.));
#407=DIRECTION('',(-1.,0.,0.));
#408=DIRECTION('',(0.,0.,1.));
#409=DIRECTION('',(1.,0.,0.));
#410=DIRECTION('',(0.,0.,-1.));
#411=DIRECTION('',(0.,0.,1.));
#412=DIRECTION('',(1.,0.,0.));
#413=DIRECTION('',(-1.,-3.1540426835942E-16,0.));
#414=DIRECTION('',(3.1540426835942E-16,-1.,0.));
#415=DIRECTION('',(-3.1540426835942E-16,1.,0.));
#416=DIRECTION('',(0.,0.,-1.));
#417=DIRECTION('',(-3.1540426835942E-16,1.,0.));
#418=DIRECTION('',(0.,0.,-1.));
#419=DIRECTION('',(-1.,0.,0.));
#420=DIRECTION('',(0.,0.,1.));
#421=DIRECTION('',(1.,0.,0.));
#422=DIRECTION('',(0.,0.,1.));
#423=DIRECTION('',(1.,0.,0.));
#424=DIRECTION('',(0.,0.,1.));
#425=DIRECTION('',(1.,0.,0.));
#426=DIRECTION('',(0.,0.,1.));
#427=DIRECTION('',(1.,0.,0.));
#428=DIRECTION('',(0.,0.,1.));
#429=DIRECTION('',(1.,0.,0.));
#430=DIRECTION('',(0.,0.,-1.));
#431=DIRECTION('',(-1.,0.,0.));
#432=DIRECTION('',(0.,0.,1.));
#433=DIRECTION('',(1.,0.,0.));
#434=DIRECTION('',(0.,0.,1.));
#435=DIRECTION('',(1.,0.,0.));
#436=DIRECTION('',(-1.59303212122948E-16,1.,0.));
#437=DIRECTION('',(1.59303212122948E-16,-1.,0.));
#438=DIRECTION('',(1.,1.59303212122948E-16,0.));
#439=DIRECTION('',(0.,0.,-1.));
#440=DIRECTION('',(-1.,-1.59303212122948E-16,0.));
#441=DIRECTION('',(0.,0.,-1.));
#442=DIRECTION('',(-1.,-1.59303212122948E-16,0.));
#443=DIRECTION('',(1.59303212122948E-16,-1.,0.));
#444=DIRECTION('',(0.,0.,-1.));
#445=DIRECTION('',(-1.59303212122948E-16,1.,0.));
#446=DIRECTION('',(1.59303212122948E-16,-1.,0.));
#447=DIRECTION('',(1.,1.59303212122948E-16,0.));
#448=DIRECTION('',(0.,0.,-1.));
#449=DIRECTION('',(-1.,-1.59303212122948E-16,0.));
#450=DIRECTION('',(-1.,-1.59303212122948E-16,0.));
#451=DIRECTION('',(1.59303212122948E-16,-1.,0.));
#452=DIRECTION('',(-1.59303212122948E-16,1.,0.));
#453=DIRECTION('',(0.,0.,1.));
#454=DIRECTION('',(1.,0.,0.));
#455=CARTESIAN_POINT('',(0.,0.,0.));
#456=CARTESIAN_POINT('',(-1.7347234759768E-18,-1.7347234759768E-18,0.082));
#457=CARTESIAN_POINT('',(0.,2.35744508835865E-19,0.082));
#458=CARTESIAN_POINT('',(-0.00272236110756821,-0.00272236110756821,0.082));
#459=CARTESIAN_POINT('',(0.00272236110756821,-0.00272236110756821,0.082));
#460=CARTESIAN_POINT('',(0.,-0.00272236110756821,0.082));
#461=CARTESIAN_POINT('',(-1.7347234759768E-18,-1.7347234759768E-18,0.082));
#462=CARTESIAN_POINT('',(0.,2.35744508835865E-19,0.082));
#463=CARTESIAN_POINT('',(-0.00272236110756821,0.00272236110756821,0.082));
#464=CARTESIAN_POINT('',(-0.00272236110756821,0.,0.082));
#465=CARTESIAN_POINT('',(-1.7347234759768E-18,-1.7347234759768E-18,0.082));
#466=CARTESIAN_POINT('',(-4.33680868994202E-19,0.00272236110756821,0.082));
#467=CARTESIAN_POINT('',(0.00272236110756821,0.00272236110756821,0.082));
#468=CARTESIAN_POINT('',(0.,2.35744508835865E-19,0.082));
#469=CARTESIAN_POINT('',(-4.33680868994202E-19,0.00575,0.03));
#470=CARTESIAN_POINT('',(-4.33680868994202E-19,0.00575,0.));
#471=CARTESIAN_POINT('',(0.00275,0.00575,0.));
#472=CARTESIAN_POINT('',(-0.00275,0.00575,0.));
#473=CARTESIAN_POINT('',(-0.00275,0.00575,0.03));
#474=CARTESIAN_POINT('',(-0.00275,0.00575,0.03));
#475=CARTESIAN_POINT('',(-4.33680868994202E-19,0.00575,0.03));
#476=CARTESIAN_POINT('',(0.00275,0.00575,0.03));
#477=CARTESIAN_POINT('',(0.00275,0.00575,0.03));
#478=CARTESIAN_POINT('',(-0.00275,0.00275,0.03));
#479=CARTESIAN_POINT('',(-0.00275,0.00275,0.));
#480=CARTESIAN_POINT('',(-0.00575,0.00275,0.));
#481=CARTESIAN_POINT('',(-0.00575,0.00275,0.03));
#482=CARTESIAN_POINT('',(-0.00575,0.00275,0.03));
#483=CARTESIAN_POINT('',(-0.00275,0.00275,0.03));
#484=CARTESIAN_POINT('',(-0.00575,-1.7347234759768E-18,0.03));
#485=CARTESIAN_POINT('',(-0.00575,-1.7347234759768E-18,0.));
#486=CARTESIAN_POINT('',(-0.00575,-0.00275,0.));
#487=CARTESIAN_POINT('',(-0.00575,-0.00275,0.03));
#488=CARTESIAN_POINT('',(-0.00575,-0.00275,0.03));
#489=CARTESIAN_POINT('',(-0.00575,-1.7347234759768E-18,0.03));
#490=CARTESIAN_POINT('',(-0.00275,-0.00275,0.03));
#491=CARTESIAN_POINT('',(-0.00275,-0.00275,0.));
#492=CARTESIAN_POINT('',(-0.00275,-0.00575,0.));
#493=CARTESIAN_POINT('',(-0.00275,-0.00575,0.03));
#494=CARTESIAN_POINT('',(-0.00275,-0.00575,0.03));
#495=CARTESIAN_POINT('',(-0.00275,-0.00275,0.03));
#496=CARTESIAN_POINT('',(8.67361737988404E-19,-0.00575,0.03));
#497=CARTESIAN_POINT('',(8.67361737988404E-19,-0.00575,0.));
#498=CARTESIAN_POINT('',(0.00275,-0.00575,0.));
#499=CARTESIAN_POINT('',(0.00275,-0.00575,0.03));
#500=CARTESIAN_POINT('',(0.00275,-0.00575,0.03));
#501=CARTESIAN_POINT('',(8.67361737988404E-19,-0.00575,0.03));
#502=CARTESIAN_POINT('',(0.00275,-0.00275,0.03));
#503=CARTESIAN_POINT('',(0.00275,-0.00275,0.));
#504=CARTESIAN_POINT('',(0.00575,-0.00275,0.));
#505=CARTESIAN_POINT('',(0.00575,-0.00275,0.03));
#506=CARTESIAN_POINT('',(0.00575,-0.00275,0.03));
#507=CARTESIAN_POINT('',(0.00275,-0.00275,0.03));
#508=CARTESIAN_POINT('',(0.00575,4.33680868994202E-19,0.03));
#509=CARTESIAN_POINT('',(0.00575,4.33680868994202E-19,0.));
#510=CARTESIAN_POINT('',(0.00575,0.00275,0.));
#511=CARTESIAN_POINT('',(0.00575,0.00275,0.03));
#512=CARTESIAN_POINT('',(0.00575,0.00275,0.03));
#513=CARTESIAN_POINT('',(0.00575,4.33680868994202E-19,0.03));
#514=CARTESIAN_POINT('',(0.00275,0.00275,0.03));
#515=CARTESIAN_POINT('',(0.00275,0.00275,0.));
#516=CARTESIAN_POINT('',(0.00275,0.00275,0.03));
#517=CARTESIAN_POINT('',(0.,-1.7347234759768E-18,0.03));
#518=CARTESIAN_POINT('',(0.,2.35744508835865E-19,0.03));
#519=CARTESIAN_POINT('',(0.00385,2.35744508835865E-19,0.03));
#520=CARTESIAN_POINT('',(0.,-1.7347234759768E-18,0.));
#521=CARTESIAN_POINT('',(0.,2.35744508835865E-19,0.082));
#522=CARTESIAN_POINT('',(0.,2.35744508835865E-19,0.082));
#523=CARTESIAN_POINT('',(-1.7347234759768E-18,-1.7347234759768E-18,0.082));
#524=CARTESIAN_POINT('',(0.00272236110756821,8.67361737988404E-19,0.082));
#525=CARTESIAN_POINT('',(0.,-0.00272236110756821,0.112));
#526=CARTESIAN_POINT('',(0.00272236110756821,-0.00272236110756821,0.112));
#527=CARTESIAN_POINT('',(0.00272236110756821,-0.00272236110756821,0.112));
#528=CARTESIAN_POINT('',(0.,-0.00272236110756821,0.112));
#529=CARTESIAN_POINT('',(-0.00272236110756821,-0.00272236110756821,0.112));
#530=CARTESIAN_POINT('',(-0.00272236110756821,-0.00272236110756821,0.112));
#531=CARTESIAN_POINT('',(0.00272236110756821,8.67361737988404E-19,0.112));
#532=CARTESIAN_POINT('',(0.00272236110756821,0.00272236110756821,0.112));
#533=CARTESIAN_POINT('',(0.00272236110756821,0.00272236110756821,0.112));
#534=CARTESIAN_POINT('',(0.00272236110756821,8.67361737988404E-19,0.112));
#535=CARTESIAN_POINT('',(-4.33680868994202E-19,0.00272236110756821,0.112));
#536=CARTESIAN_POINT('',(-0.00272236110756821,0.00272236110756821,0.112));
#537=CARTESIAN_POINT('',(-0.00272236110756821,0.00272236110756821,0.112));
#538=CARTESIAN_POINT('',(-4.33680868994202E-19,0.00272236110756821,0.112));
#539=CARTESIAN_POINT('',(-0.00272236110756821,0.,0.112));
#540=CARTESIAN_POINT('',(-0.00272236110756821,0.,0.112));
#541=CARTESIAN_POINT('',(0.,8.67361737988404E-19,0.112));
#542=MECHANICAL_DESIGN_GEOMETRIC_PRESENTATION_REPRESENTATION('',(#314),
#543);
#543=(
GEOMETRIC_REPRESENTATION_CONTEXT(3)
GLOBAL_UNCERTAINTY_ASSIGNED_CONTEXT((#544))
GLOBAL_UNIT_ASSIGNED_CONTEXT((#547,#546,#545))
REPRESENTATION_CONTEXT('Axe_principal','TOP_LEVEL_ASSEMBLY_PART')
);
#544=UNCERTAINTY_MEASURE_WITH_UNIT(LENGTH_MEASURE(5.E-6),#547,
'DISTANCE_ACCURACY_VALUE','Maximum Tolerance applied to model');
#545=(
NAMED_UNIT(*)
SI_UNIT($,.STERADIAN.)
SOLID_ANGLE_UNIT()
);
#546=(
NAMED_UNIT(*)
PLANE_ANGLE_UNIT()
SI_UNIT($,.RADIAN.)
);
#547=(
LENGTH_UNIT()
NAMED_UNIT(*)
SI_UNIT($,.METRE.)
);
#548=PRODUCT_DEFINITION_SHAPE('','',#549);
#549=PRODUCT_DEFINITION('','',#551,#550);
#550=PRODUCT_DEFINITION_CONTEXT('',#557,'design');
#551=PRODUCT_DEFINITION_FORMATION_WITH_SPECIFIED_SOURCE('','',#553,
 .NOT_KNOWN.);
#552=PRODUCT_RELATED_PRODUCT_CATEGORY('','',(#553));
#553=PRODUCT('Axe_principal','Axe_principal','Axe_principal',(#555));
#554=PRODUCT_CATEGORY('','');
#555=PRODUCT_CONTEXT('',#557,'mechanical');
#556=APPLICATION_PROTOCOL_DEFINITION('international standard',
'ap242_managed_model_based_3d_engineering',2011,#557);
#557=APPLICATION_CONTEXT('managed model based 3d engineering');
ENDSEC;
END-ISO-10303-21;
