ISO-10303-21;
HEADER;
/* Generated by software containing ST-Developer
 * from STEP Tools, Inc. (www.steptools.com) 
 */

FILE_DESCRIPTION(
/* description */ (''),
/* implementation_level */ '2;1');

FILE_NAME(
/* name */ 'C:\\Users\\Hp\\Desktop\\Usinage caisse a savon\\CAS-10.stp',

/* time_stamp */ '2024-05-10T19:39:44+02:00',
/* author */ ('Hp'),
/* organization */ (''),
/* preprocessor_version */ 'ST-DEVELOPER v18.1',
/* originating_system */ 'Autodesk Inventor 2022',
/* authorisation */ '');

FILE_SCHEMA (('AUTOMOTIVE_DESIGN { 1 0 10303 214 3 1 1 }'));
ENDSEC;

DATA;
#10=MECHANICAL_DESIGN_GEOMETRIC_PRESENTATION_REPRESENTATION('',(#13),#249);
#11=SHAPE_REPRESENTATION_RELATIONSHIP('SRR','None',#256,#12);
#12=ADVANCED_BREP_SHAPE_REPRESENTATION('',(#14),#248);
#13=STYLED_ITEM('',(#265),#14);
#14=MANIFOLD_SOLID_BREP('Solide8',#128);
#15=FACE_BOUND('',#35,.T.);
#16=FACE_BOUND('',#40,.T.);
#17=FACE_BOUND('',#42,.T.);
#18=PLANE('',#157);
#19=PLANE('',#167);
#20=PLANE('',#168);
#21=CYLINDRICAL_SURFACE('',#155,15.);
#22=CYLINDRICAL_SURFACE('',#159,4.188);
#23=CYLINDRICAL_SURFACE('',#165,20.);
#24=FACE_OUTER_BOUND('',#32,.T.);
#25=FACE_OUTER_BOUND('',#33,.T.);
#26=FACE_OUTER_BOUND('',#34,.T.);
#27=FACE_OUTER_BOUND('',#36,.T.);
#28=FACE_OUTER_BOUND('',#37,.T.);
#29=FACE_OUTER_BOUND('',#38,.T.);
#30=FACE_OUTER_BOUND('',#39,.T.);
#31=FACE_OUTER_BOUND('',#41,.T.);
#32=EDGE_LOOP('',(#88,#89,#90,#91,#92));
#33=EDGE_LOOP('',(#93,#94,#95,#96,#97));
#34=EDGE_LOOP('',(#98));
#35=EDGE_LOOP('',(#99));
#36=EDGE_LOOP('',(#100,#101,#102,#103));
#37=EDGE_LOOP('',(#104,#105,#106,#107,#108));
#38=EDGE_LOOP('',(#109,#110,#111,#112,#113));
#39=EDGE_LOOP('',(#114));
#40=EDGE_LOOP('',(#115));
#41=EDGE_LOOP('',(#116));
#42=EDGE_LOOP('',(#117));
#43=LINE('',#219,#48);
#44=LINE('',#224,#49);
#45=LINE('',#231,#50);
#46=LINE('',#236,#51);
#47=LINE('',#242,#52);
#48=VECTOR('',#177,14.75);
#49=VECTOR('',#184,15.);
#50=VECTOR('',#193,4.188);
#51=VECTOR('',#198,16.);
#52=VECTOR('',#205,20.);
#53=CIRCLE('',#152,15.);
#54=CIRCLE('',#153,15.);
#55=CIRCLE('',#154,14.5);
#56=CIRCLE('',#156,15.);
#57=CIRCLE('',#158,4.188);
#58=CIRCLE('',#160,4.188);
#59=CIRCLE('',#162,12.);
#60=CIRCLE('',#163,20.);
#61=CIRCLE('',#164,20.);
#62=CIRCLE('',#166,20.);
#63=VERTEX_POINT('',#214);
#64=VERTEX_POINT('',#215);
#65=VERTEX_POINT('',#218);
#66=VERTEX_POINT('',#222);
#67=VERTEX_POINT('',#226);
#68=VERTEX_POINT('',#229);
#69=VERTEX_POINT('',#233);
#70=VERTEX_POINT('',#235);
#71=VERTEX_POINT('',#237);
#72=VERTEX_POINT('',#241);
#73=EDGE_CURVE('',#63,#64,#53,.T.);
#74=EDGE_CURVE('',#64,#63,#54,.T.);
#75=EDGE_CURVE('',#63,#65,#43,.T.);
#76=EDGE_CURVE('',#65,#65,#55,.T.);
#77=EDGE_CURVE('',#66,#66,#56,.T.);
#78=EDGE_CURVE('',#66,#64,#44,.T.);
#79=EDGE_CURVE('',#67,#67,#57,.T.);
#80=EDGE_CURVE('',#68,#68,#58,.T.);
#81=EDGE_CURVE('',#68,#67,#45,.T.);
#82=EDGE_CURVE('',#69,#69,#59,.T.);
#83=EDGE_CURVE('',#69,#70,#46,.T.);
#84=EDGE_CURVE('',#70,#71,#60,.T.);
#85=EDGE_CURVE('',#71,#70,#61,.T.);
#86=EDGE_CURVE('',#71,#72,#47,.T.);
#87=EDGE_CURVE('',#72,#72,#62,.T.);
#88=ORIENTED_EDGE('',*,*,#73,.T.);
#89=ORIENTED_EDGE('',*,*,#74,.T.);
#90=ORIENTED_EDGE('',*,*,#75,.T.);
#91=ORIENTED_EDGE('',*,*,#76,.T.);
#92=ORIENTED_EDGE('',*,*,#75,.F.);
#93=ORIENTED_EDGE('',*,*,#77,.F.);
#94=ORIENTED_EDGE('',*,*,#78,.T.);
#95=ORIENTED_EDGE('',*,*,#73,.F.);
#96=ORIENTED_EDGE('',*,*,#74,.F.);
#97=ORIENTED_EDGE('',*,*,#78,.F.);
#98=ORIENTED_EDGE('',*,*,#76,.F.);
#99=ORIENTED_EDGE('',*,*,#79,.T.);
#100=ORIENTED_EDGE('',*,*,#80,.F.);
#101=ORIENTED_EDGE('',*,*,#81,.T.);
#102=ORIENTED_EDGE('',*,*,#79,.F.);
#103=ORIENTED_EDGE('',*,*,#81,.F.);
#104=ORIENTED_EDGE('',*,*,#82,.T.);
#105=ORIENTED_EDGE('',*,*,#83,.T.);
#106=ORIENTED_EDGE('',*,*,#84,.T.);
#107=ORIENTED_EDGE('',*,*,#85,.T.);
#108=ORIENTED_EDGE('',*,*,#83,.F.);
#109=ORIENTED_EDGE('',*,*,#84,.F.);
#110=ORIENTED_EDGE('',*,*,#85,.F.);
#111=ORIENTED_EDGE('',*,*,#86,.T.);
#112=ORIENTED_EDGE('',*,*,#87,.T.);
#113=ORIENTED_EDGE('',*,*,#86,.F.);
#114=ORIENTED_EDGE('',*,*,#82,.F.);
#115=ORIENTED_EDGE('',*,*,#80,.T.);
#116=ORIENTED_EDGE('',*,*,#87,.F.);
#117=ORIENTED_EDGE('',*,*,#77,.T.);
#118=CONICAL_SURFACE('',#151,14.75,0.785398163397449);
#119=CONICAL_SURFACE('',#161,16.,0.785398163397448);
#120=ADVANCED_FACE('',(#24),#118,.T.);
#121=ADVANCED_FACE('',(#25),#21,.T.);
#122=ADVANCED_FACE('',(#26,#15),#18,.F.);
#123=ADVANCED_FACE('',(#27),#22,.F.);
#124=ADVANCED_FACE('',(#28),#119,.T.);
#125=ADVANCED_FACE('',(#29),#23,.T.);
#126=ADVANCED_FACE('',(#30,#16),#19,.T.);
#127=ADVANCED_FACE('',(#31,#17),#20,.F.);
#128=CLOSED_SHELL('',(#120,#121,#122,#123,#124,#125,#126,#127));
#129=DERIVED_UNIT_ELEMENT(#132,1.);
#130=DERIVED_UNIT_ELEMENT(#251,-3.);
#131=DIMENSIONAL_EXPONENTS(1.,0.,0.,0.,0.,0.,0.);
#132=(
CONVERSION_BASED_UNIT('gram',#134)
MASS_UNIT()
NAMED_UNIT(#131)
);
#133=(
MASS_UNIT()
NAMED_UNIT(*)
SI_UNIT(.KILO.,.GRAM.)
);
#134=MASS_MEASURE_WITH_UNIT(MASS_MEASURE(0.001),#133);
#135=DERIVED_UNIT((#129,#130));
#136=MEASURE_REPRESENTATION_ITEM('density measure',
POSITIVE_RATIO_MEASURE(7.85),#135);
#137=PROPERTY_DEFINITION_REPRESENTATION(#142,#139);
#138=PROPERTY_DEFINITION_REPRESENTATION(#143,#140);
#139=REPRESENTATION('material name',(#141),#248);
#140=REPRESENTATION('density',(#136),#248);
#141=DESCRIPTIVE_REPRESENTATION_ITEM('Acier','Acier');
#142=PROPERTY_DEFINITION('material property','material name',#258);
#143=PROPERTY_DEFINITION('material property','density of part',#258);
#144=DATE_TIME_ROLE('creation_date');
#145=APPLIED_DATE_AND_TIME_ASSIGNMENT(#146,#144,(#258));
#146=DATE_AND_TIME(#147,#148);
#147=CALENDAR_DATE(2023,7,5);
#148=LOCAL_TIME(0,0,0.,#149);
#149=COORDINATED_UNIVERSAL_TIME_OFFSET(0,0,.BEHIND.);
#150=AXIS2_PLACEMENT_3D('placement',#212,#169,#170);
#151=AXIS2_PLACEMENT_3D('',#213,#171,#172);
#152=AXIS2_PLACEMENT_3D('',#216,#173,#174);
#153=AXIS2_PLACEMENT_3D('',#217,#175,#176);
#154=AXIS2_PLACEMENT_3D('',#220,#178,#179);
#155=AXIS2_PLACEMENT_3D('',#221,#180,#181);
#156=AXIS2_PLACEMENT_3D('',#223,#182,#183);
#157=AXIS2_PLACEMENT_3D('',#225,#185,#186);
#158=AXIS2_PLACEMENT_3D('',#227,#187,#188);
#159=AXIS2_PLACEMENT_3D('',#228,#189,#190);
#160=AXIS2_PLACEMENT_3D('',#230,#191,#192);
#161=AXIS2_PLACEMENT_3D('',#232,#194,#195);
#162=AXIS2_PLACEMENT_3D('',#234,#196,#197);
#163=AXIS2_PLACEMENT_3D('',#238,#199,#200);
#164=AXIS2_PLACEMENT_3D('',#239,#201,#202);
#165=AXIS2_PLACEMENT_3D('',#240,#203,#204);
#166=AXIS2_PLACEMENT_3D('',#243,#206,#207);
#167=AXIS2_PLACEMENT_3D('',#244,#208,#209);
#168=AXIS2_PLACEMENT_3D('',#245,#210,#211);
#169=DIRECTION('axis',(0.,0.,1.));
#170=DIRECTION('refdir',(1.,0.,0.));
#171=DIRECTION('center_axis',(0.,0.,1.));
#172=DIRECTION('ref_axis',(-1.,0.,0.));
#173=DIRECTION('center_axis',(0.,0.,-1.));
#174=DIRECTION('ref_axis',(-1.,0.,0.));
#175=DIRECTION('center_axis',(0.,0.,-1.));
#176=DIRECTION('ref_axis',(-1.,0.,0.));
#177=DIRECTION('',(-0.707106781186548,-8.65956056235494E-17,-0.707106781186547));
#178=DIRECTION('center_axis',(0.,0.,1.));
#179=DIRECTION('ref_axis',(-1.,0.,0.));
#180=DIRECTION('center_axis',(0.,0.,1.));
#181=DIRECTION('ref_axis',(1.,0.,0.));
#182=DIRECTION('center_axis',(0.,0.,1.));
#183=DIRECTION('ref_axis',(1.,0.,0.));
#184=DIRECTION('',(0.,0.,-1.));
#185=DIRECTION('center_axis',(0.,0.,1.));
#186=DIRECTION('ref_axis',(1.,0.,0.));
#187=DIRECTION('center_axis',(0.,0.,1.));
#188=DIRECTION('ref_axis',(1.,0.,0.));
#189=DIRECTION('center_axis',(0.,0.,1.));
#190=DIRECTION('ref_axis',(1.,0.,0.));
#191=DIRECTION('center_axis',(0.,0.,-1.));
#192=DIRECTION('ref_axis',(1.,0.,0.));
#193=DIRECTION('',(0.,0.,-1.));
#194=DIRECTION('center_axis',(0.,0.,-1.));
#195=DIRECTION('ref_axis',(-1.,0.,0.));
#196=DIRECTION('center_axis',(0.,0.,-1.));
#197=DIRECTION('ref_axis',(-1.,0.,0.));
#198=DIRECTION('',(0.707106781186548,8.65956056235493E-17,-0.707106781186548));
#199=DIRECTION('center_axis',(0.,0.,1.));
#200=DIRECTION('ref_axis',(-1.,0.,0.));
#201=DIRECTION('center_axis',(0.,0.,1.));
#202=DIRECTION('ref_axis',(-1.,0.,0.));
#203=DIRECTION('center_axis',(0.,0.,1.));
#204=DIRECTION('ref_axis',(1.,0.,0.));
#205=DIRECTION('',(0.,0.,-1.));
#206=DIRECTION('center_axis',(0.,0.,1.));
#207=DIRECTION('ref_axis',(1.,0.,0.));
#208=DIRECTION('center_axis',(0.,0.,1.));
#209=DIRECTION('ref_axis',(1.,0.,0.));
#210=DIRECTION('center_axis',(0.,0.,1.));
#211=DIRECTION('ref_axis',(1.,0.,0.));
#212=CARTESIAN_POINT('',(0.,0.,0.));
#213=CARTESIAN_POINT('Origin',(0.,0.,0.25));
#214=CARTESIAN_POINT('',(15.,-1.83697019872103E-15,0.5));
#215=CARTESIAN_POINT('',(-15.,-1.83697019872103E-15,0.5));
#216=CARTESIAN_POINT('Origin',(0.,0.,0.5));
#217=CARTESIAN_POINT('Origin',(0.,0.,0.5));
#218=CARTESIAN_POINT('',(14.5,1.77573785876366E-15,0.));
#219=CARTESIAN_POINT('',(14.75,1.80635402874235E-15,0.25));
#220=CARTESIAN_POINT('Origin',(0.,0.,0.));
#221=CARTESIAN_POINT('Origin',(0.,0.,0.));
#222=CARTESIAN_POINT('',(-15.,-1.83697019872103E-15,8.));
#223=CARTESIAN_POINT('Origin',(0.,0.,8.));
#224=CARTESIAN_POINT('',(-15.,-1.83697019872103E-15,0.));
#225=CARTESIAN_POINT('Origin',(0.,0.,0.));
#226=CARTESIAN_POINT('',(-4.188,-5.12882079482912E-16,0.));
#227=CARTESIAN_POINT('Origin',(0.,0.,0.));
#228=CARTESIAN_POINT('Origin',(0.,0.,-36.8465843842649));
#229=CARTESIAN_POINT('',(-4.188,-5.12882079482912E-16,25.));
#230=CARTESIAN_POINT('Origin',(0.,0.,25.));
#231=CARTESIAN_POINT('',(-4.188,-5.12882079482912E-16,-36.8465843842649));
#232=CARTESIAN_POINT('Origin',(0.,0.,21.));
#233=CARTESIAN_POINT('',(12.,-1.46957615897682E-15,25.));
#234=CARTESIAN_POINT('Origin',(0.,0.,25.));
#235=CARTESIAN_POINT('',(20.,2.44929359829471E-15,17.));
#236=CARTESIAN_POINT('',(16.,1.95943487863577E-15,21.));
#237=CARTESIAN_POINT('',(-20.,-2.44929359829471E-15,17.));
#238=CARTESIAN_POINT('Origin',(0.,0.,17.));
#239=CARTESIAN_POINT('Origin',(0.,0.,17.));
#240=CARTESIAN_POINT('Origin',(0.,0.,8.));
#241=CARTESIAN_POINT('',(-20.,-2.44929359829471E-15,8.));
#242=CARTESIAN_POINT('',(-20.,-2.44929359829471E-15,8.));
#243=CARTESIAN_POINT('Origin',(0.,0.,8.));
#244=CARTESIAN_POINT('Origin',(0.,0.,25.));
#245=CARTESIAN_POINT('Origin',(0.,0.,8.));
#246=UNCERTAINTY_MEASURE_WITH_UNIT(LENGTH_MEASURE(0.01),#250,
'DISTANCE_ACCURACY_VALUE',
'Maximum model space distance between geometric entities at asserted c
onnectivities');
#247=UNCERTAINTY_MEASURE_WITH_UNIT(LENGTH_MEASURE(0.01),#250,
'DISTANCE_ACCURACY_VALUE',
'Maximum model space distance between geometric entities at asserted c
onnectivities');
#248=(
GEOMETRIC_REPRESENTATION_CONTEXT(3)
GLOBAL_UNCERTAINTY_ASSIGNED_CONTEXT((#246))
GLOBAL_UNIT_ASSIGNED_CONTEXT((#250,#252,#253))
REPRESENTATION_CONTEXT('','3D')
);
#249=(
GEOMETRIC_REPRESENTATION_CONTEXT(3)
GLOBAL_UNCERTAINTY_ASSIGNED_CONTEXT((#247))
GLOBAL_UNIT_ASSIGNED_CONTEXT((#250,#252,#253))
REPRESENTATION_CONTEXT('','3D')
);
#250=(
LENGTH_UNIT()
NAMED_UNIT(*)
SI_UNIT(.MILLI.,.METRE.)
);
#251=(
LENGTH_UNIT()
NAMED_UNIT(*)
SI_UNIT(.CENTI.,.METRE.)
);
#252=(
NAMED_UNIT(*)
PLANE_ANGLE_UNIT()
SI_UNIT($,.RADIAN.)
);
#253=(
NAMED_UNIT(*)
SI_UNIT($,.STERADIAN.)
SOLID_ANGLE_UNIT()
);
#254=SHAPE_DEFINITION_REPRESENTATION(#255,#256);
#255=PRODUCT_DEFINITION_SHAPE('',$,#258);
#256=SHAPE_REPRESENTATION('',(#150),#248);
#257=PRODUCT_DEFINITION_CONTEXT('part definition',#262,'design');
#258=PRODUCT_DEFINITION('MM56 - 1201','CAS-10',#259,#257);
#259=PRODUCT_DEFINITION_FORMATION('',$,#264);
#260=PRODUCT_RELATED_PRODUCT_CATEGORY('CAS-10','CAS-10',(#264));
#261=APPLICATION_PROTOCOL_DEFINITION('international standard',
'automotive_design',2009,#262);
#262=APPLICATION_CONTEXT(
'Core Data for Automotive Mechanical Design Process');
#263=PRODUCT_CONTEXT('part definition',#262,'mechanical');
#264=PRODUCT('MM56 - 1201','CAS-10',$,(#263));
#265=PRESENTATION_STYLE_ASSIGNMENT((#266));
#266=SURFACE_STYLE_USAGE(.BOTH.,#269);
#267=SURFACE_STYLE_RENDERING_WITH_PROPERTIES($,#273,(#268));
#268=SURFACE_STYLE_TRANSPARENT(0.);
#269=SURFACE_SIDE_STYLE('',(#270,#267));
#270=SURFACE_STYLE_FILL_AREA(#271);
#271=FILL_AREA_STYLE('',(#272));
#272=FILL_AREA_STYLE_COLOUR('',#273);
#273=COLOUR_RGB('',0.87843137254902,0.874509803921569,0.858823529411765);
ENDSEC;
END-ISO-10303-21;
