ISO-10303-21;
HEADER;
FILE_DESCRIPTION (( 'STEP AP214' ),
    '1' );
FILE_NAME ('CYC-040.step',
    '2024-04-03T09:42:20',
    ( '' ),
    ( '' ),
    'SwSTEP 2.0',
    'SolidWorks 2024',
    '' );
FILE_SCHEMA (( 'AUTOMOTIVE_DESIGN' ));
ENDSEC;

DATA;
#1 = EDGE_LOOP ( 'NONE', ( #166, #68, #124, #232 ) ) ;
#2 = FACE_OUTER_BOUND ( 'NONE', #58, .T. ) ;
#3 = ORIENTED_EDGE ( 'NONE', *, *, #57, .T. ) ;
#4 = AXIS2_PLACEMENT_3D ( 'NONE', #89, #156, #23 ) ;
#5 = CARTESIAN_POINT ( 'NONE',  ( 307.4044050418423808, 1000.610189668625708, 0.000000000000000000 ) ) ;
#6 = CARTESIAN_POINT ( 'NONE',  ( 413.3929581591740998, 804.3520884589593152, 0.000000000000000000 ) ) ;
#7 = DIRECTION ( 'NONE',  ( 1.000000000000000000, 0.000000000000000000, 0.000000000000000000 ) ) ;
#8 = VECTOR ( 'NONE', #36, 1000.000000000000114 ) ;
#9 = ORIENTED_EDGE ( 'NONE', *, *, #259, .T. ) ;
#10 = CARTESIAN_POINT ( 'NONE',  ( 413.3929581591740998, 804.3520884589593152, 0.000000000000000000 ) ) ;
#11 = DIRECTION ( 'NONE',  ( -0.4067366430758828089, 0.9135454576425641182, 0.000000000000000000 ) ) ;
#12 = CARTESIAN_POINT ( 'NONE',  ( 0.000000000000000000, 0.000000000000000000, 0.000000000000000000 ) ) ;
#13 = DIRECTION ( 'NONE',  ( 0.000000000000000000, 0.000000000000000000, 1.000000000000000000 ) ) ;
#14 = VECTOR ( 'NONE', #223, 999.9999999999998863 ) ;
#15 = CIRCLE ( 'NONE', #103, 13.99999999999937117 ) ;
#16 =( NAMED_UNIT ( * ) SI_UNIT ( $, .STERADIAN. ) SOLID_ANGLE_UNIT ( ) );
#17 = UNCERTAINTY_MEASURE_WITH_UNIT (LENGTH_MEASURE( 1.000000000000000082E-05 ), #129, 'distance_accuracy_value', 'NONE');
#18 = EDGE_CURVE ( 'NONE', #280, #93, #105, .T. ) ;
#19 = LINE ( 'NONE', #106, #181 ) ;
#20 = LINE ( 'NONE', #38, #83 ) ;
#21 = EDGE_CURVE ( 'NONE', #204, #213, #50, .T. ) ;
#22 = DIRECTION ( 'NONE',  ( 0.4067366430757980433, -0.9135454576426017548, 0.000000000000000000 ) ) ;
#23 = DIRECTION ( 'NONE',  ( -0.9135454576426028650, -0.4067366430757961004, 0.000000000000000000 ) ) ;
#24 = ORIENTED_EDGE ( 'NONE', *, *, #200, .T. ) ;
#25 = EDGE_LOOP ( 'NONE', ( #3, #187 ) ) ;
#26 = CARTESIAN_POINT ( 'NONE',  ( 391.2032432616506981, 888.6113108192853360, 1.714505518806218513E-15 ) ) ;
#27 = CONICAL_SURFACE ( 'NONE', #282, 14.49999999999929301, 0.7853981633975101184 ) ;
#28 = EDGE_LOOP ( 'NONE', ( #109, #211 ) ) ;
#29 = DIRECTION ( 'NONE',  ( -0.4067366430757980988, 0.9135454576426018658, -0.000000000000000000 ) ) ;
#30 = ORIENTED_EDGE ( 'NONE', *, *, #112, .F. ) ;
#31 = FACE_OUTER_BOUND ( 'NONE', #120, .T. ) ;
#32 = ORIENTED_EDGE ( 'NONE', *, *, #241, .F. ) ;
#33 = CARTESIAN_POINT ( 'NONE',  ( 378.4136068546554270, 882.9169978162232155, 0.000000000000000000 ) ) ;
#34 = VECTOR ( 'NONE', #94, 1000.000000000000227 ) ;
#35 = FACE_OUTER_BOUND ( 'NONE', #75, .T. ) ;
#36 = DIRECTION ( 'NONE',  ( 0.3583679495452459229, 0.9335804264972226152, 8.659560562355213890E-17 ) ) ;
#37 = SURFACE_STYLE_FILL_AREA ( #224 ) ;
#38 = CARTESIAN_POINT ( 'NONE',  ( 338.4649506016909868, 1014.439235533203032, 2.081899558550510929E-15 ) ) ;
#39 = ADVANCED_FACE ( 'NONE', ( #158 ), #111, .T. ) ;
#40 = CARTESIAN_POINT ( 'NONE',  ( 398.0660537007876769, 796.9807927978494035, 0.000000000000000000 ) ) ;
#41 = CARTESIAN_POINT ( 'NONE',  ( 391.2032432616507549, 888.6113108192853360, 1.714505518806218907E-15 ) ) ;
#42 = PRODUCT_DEFINITION_CONTEXT ( 'detailed design', #252, 'design' ) ;
#43 = CIRCLE ( 'NONE', #130, 13.99999999999937117 ) ;
#44 = EDGE_CURVE ( 'NONE', #179, #140, #254, .T. ) ;
#45 = FACE_OUTER_BOUND ( 'NONE', #278, .T. ) ;
#46 = ADVANCED_FACE ( 'NONE', ( #45 ), #249, .F. ) ;
#47 = ORIENTED_EDGE ( 'NONE', *, *, #57, .F. ) ;
#48 = CIRCLE ( 'NONE', #176, 17.00000000000006040 ) ;
#49 = ORIENTED_EDGE ( 'NONE', *, *, #222, .T. ) ;
#50 = CIRCLE ( 'NONE', #4, 17.00000000000006040 ) ;
#51 = ORIENTED_EDGE ( 'NONE', *, *, #112, .T. ) ;
#52 = AXIS2_PLACEMENT_3D ( 'NONE', #76, #59, #126 ) ;
#53 = DIRECTION ( 'NONE',  ( -0.9135454576425637852, -0.4067366430758834750, 0.000000000000000000 ) ) ;
#54 = ORIENTED_EDGE ( 'NONE', *, *, #108, .T. ) ;
#55 = ADVANCED_BREP_SHAPE_REPRESENTATION ( 'CYC-040', ( #240, #250 ), #198 ) ;
#56 = LINE ( 'NONE', #233, #65 ) ;
#57 = EDGE_CURVE ( 'NONE', #60, #159, #81, .T. ) ;
#58 = EDGE_LOOP ( 'NONE', ( #144, #209, #229, #283 ) ) ;
#59 = DIRECTION ( 'NONE',  ( -0.4067366430757980988, 0.9135454576426018658, -0.000000000000000000 ) ) ;
#60 = VERTEX_POINT ( 'NONE', #202 ) ;
#61 = CIRCLE ( 'NONE', #193, 14.49999999999796430 ) ;
#62 = CARTESIAN_POINT ( 'NONE',  ( 413.5963264807119799, 803.8953157301380088, 0.000000000000000000 ) ) ;
#63 = PRODUCT_CONTEXT ( 'NONE', #298, 'mechanical' ) ;
#64 = LINE ( 'NONE', #271, #14 ) ;
#65 = VECTOR ( 'NONE', #242, 999.9999999999998863 ) ;
#66 =( NAMED_UNIT ( * ) PLANE_ANGLE_UNIT ( ) SI_UNIT ( $, .RADIAN. ) );
#67 = DIRECTION ( 'NONE',  ( -0.9135454576425637852, -0.4067366430758834750, 0.000000000000000000 ) ) ;
#68 = ORIENTED_EDGE ( 'NONE', *, *, #69, .T. ) ;
#69 = EDGE_CURVE ( 'NONE', #285, #257, #148, .T. ) ;
#70 = DIRECTION ( 'NONE',  ( 0.9135454576425644513, 0.4067366430758819762, 0.000000000000000000 ) ) ;
#71 = ORIENTED_EDGE ( 'NONE', *, *, #121, .F. ) ;
#72 = ADVANCED_FACE ( 'NONE', ( #239, #31 ), #165, .F. ) ;
#73 = AXIS2_PLACEMENT_3D ( 'NONE', #33, #11, #53 ) ;
#74 = FACE_OUTER_BOUND ( 'NONE', #177, .T. ) ;
#75 = EDGE_LOOP ( 'NONE', ( #260, #86, #238, #253 ) ) ;
#76 = CARTESIAN_POINT ( 'NONE',  ( 322.9346778217666838, 1007.524712600914313, 0.000000000000000000 ) ) ;
#77 = ORIENTED_EDGE ( 'NONE', *, *, #218, .F. ) ;
#78 = FACE_BOUND ( 'NONE', #25, .T. ) ;
#79 = COLOUR_RGB ( '',0.6470588235294117974, 0.6196078431372549211, 0.5882352941176470784 ) ;
#80 = DIRECTION ( 'NONE',  ( 0.4067366430757980433, -0.9135454576426017548, 0.000000000000000000 ) ) ;
#81 = CIRCLE ( 'NONE', #296, 14.50000000000059330 ) ;
#82 = DIRECTION ( 'NONE',  ( -0.9135454576425637852, -0.4067366430758834750, 0.000000000000000000 ) ) ;
#83 = VECTOR ( 'NONE', #107, 999.9999999999998863 ) ;
#84 = UNCERTAINTY_MEASURE_WITH_UNIT (LENGTH_MEASURE( 1.000000000000000082E-05 ), #170, 'distance_accuracy_value', 'NONE');
#85 = DIRECTION ( 'NONE',  ( -0.4067366430757980433, 0.9135454576426017548, -0.000000000000000000 ) ) ;
#86 = ORIENTED_EDGE ( 'NONE', *, *, #91, .T. ) ;
#87 = ORIENTED_EDGE ( 'NONE', *, *, #108, .F. ) ;
#88 = AXIS2_PLACEMENT_3D ( 'NONE', #219, #152, #246 ) ;
#89 = CARTESIAN_POINT ( 'NONE',  ( 378.2102385331176038, 883.3737705450442945, 0.000000000000000000 ) ) ;
#90 = ORIENTED_EDGE ( 'NONE', *, *, #290, .F. ) ;
#91 = EDGE_CURVE ( 'NONE', #93, #140, #167, .T. ) ;
#92 = CARTESIAN_POINT ( 'NONE',  ( 378.2102385331176038, 883.3737705450442945, 0.000000000000000000 ) ) ;
#93 = VERTEX_POINT ( 'NONE', #143 ) ;
#94 = DIRECTION ( 'NONE',  ( -0.9335804264972457078, 0.3583679495451858599, 0.000000000000000000 ) ) ;
#95 = EDGE_LOOP ( 'NONE', ( #135, #9 ) ) ;
#96 = ADVANCED_FACE ( 'NONE', ( #78, #186 ), #119, .F. ) ;
#97 = CARTESIAN_POINT ( 'NONE',  ( 391.4566476689333285, 889.2714518696426467, 1.775737858763408988E-15 ) ) ;
#98 = EDGE_LOOP ( 'NONE', ( #90, #49, #47, #87 ) ) ;
#99 = DIRECTION ( 'NONE',  ( 0.4067366430758828089, -0.9135454576425641182, -0.000000000000000000 ) ) ;
#100 = ADVANCED_FACE ( 'NONE', ( #2 ), #27, .F. ) ;
#101 = CARTESIAN_POINT ( 'NONE',  ( 426.8427356165303195, 809.7929970547373841, 0.000000000000000000 ) ) ;
#102 = LINE ( 'NONE', #41, #8 ) ;
#103 = AXIS2_PLACEMENT_3D ( 'NONE', #147, #127, #261 ) ;
#104 = DIRECTION ( 'NONE',  ( 0.9135454576426011997, 0.4067366430757995976, 0.000000000000000000 ) ) ;
#105 = CIRCLE ( 'NONE', #287, 13.99999999999937117 ) ;
#106 = CARTESIAN_POINT ( 'NONE',  ( 426.8427356165285005, 809.7929970547380663, 0.000000000000000000 ) ) ;
#107 = DIRECTION ( 'NONE',  ( -0.4067366430757980988, 0.9135454576426018658, -0.000000000000000000 ) ) ;
#108 = EDGE_CURVE ( 'NONE', #297, #60, #116, .T. ) ;
#109 = ORIENTED_EDGE ( 'NONE', *, *, #134, .T. ) ;
#110 = DIRECTION ( 'NONE',  ( 0.9135454576426011997, 0.4067366430757995976, 0.000000000000000000 ) ) ;
#111 = CYLINDRICAL_SURFACE ( 'NONE', #264, 17.00000000000010658 ) ;
#112 = EDGE_CURVE ( 'NONE', #93, #297, #56, .T. ) ;
#113 = PRODUCT_DEFINITION_SHAPE ( 'NONE', 'NONE',  #117 ) ;
#114 = ORIENTED_EDGE ( 'NONE', *, *, #272, .T. ) ;
#115 = STYLED_ITEM ( 'NONE', ( #273 ), #240 ) ;
#116 = LINE ( 'NONE', #288, #34 ) ;
#117 = PRODUCT_DEFINITION ( 'UNKNOWN', '', #173, #42 ) ;
#118 = VERTEX_POINT ( 'NONE', #26 ) ;
#119 = PLANE ( 'NONE',  #142 ) ;
#120 = EDGE_LOOP ( 'NONE', ( #164, #184 ) ) ;
#121 = EDGE_CURVE ( 'NONE', #297, #118, #15, .T. ) ;
#122 = CARTESIAN_POINT ( 'NONE',  ( 413.5963264807119799, 803.8953157301380088, 0.000000000000000000 ) ) ;
#123 = APPLICATION_PROTOCOL_DEFINITION ( 'draft international standard', 'automotive_design', 1998, #252 ) ;
#124 = ORIENTED_EDGE ( 'NONE', *, *, #180, .T. ) ;
#125 = AXIS2_PLACEMENT_3D ( 'NONE', #122, #279, #70 ) ;
#126 = DIRECTION ( 'NONE',  ( -0.9135454576426003115, -0.4067366430758015405, 0.000000000000000000 ) ) ;
#127 = DIRECTION ( 'NONE',  ( -0.4067366430758828089, 0.9135454576425641182, 0.000000000000000000 ) ) ;
#128 = CYLINDRICAL_SURFACE ( 'NONE', #88, 13.99999999999938360 ) ;
#129 =( LENGTH_UNIT ( ) NAMED_UNIT ( * ) SI_UNIT ( .MILLI., .METRE. ) );
#130 = AXIS2_PLACEMENT_3D ( 'NONE', #10, #99, #191 ) ;
#131 = CARTESIAN_POINT ( 'NONE',  ( 413.5963264807119799, 803.8953157301380088, 0.000000000000000000 ) ) ;
#132 = ADVANCED_FACE ( 'NONE', ( #216 ), #145, .F. ) ;
#133 = FILL_AREA_STYLE_COLOUR ( '', #79 ) ;
#134 = EDGE_CURVE ( 'NONE', #213, #204, #48, .T. ) ;
#135 = ORIENTED_EDGE ( 'NONE', *, *, #44, .T. ) ;
#136 = ORIENTED_EDGE ( 'NONE', *, *, #276, .T. ) ;
#137 = ADVANCED_FACE ( 'NONE', ( #35 ), #155, .F. ) ;
#138 = ORIENTED_EDGE ( 'NONE', *, *, #18, .T. ) ;
#139 = CARTESIAN_POINT ( 'NONE',  ( 322.9346778217666838, 1007.524712600914313, 0.000000000000000000 ) ) ;
#140 = VERTEX_POINT ( 'NONE', #212 ) ;
#141 = VECTOR ( 'NONE', #281, 999.9999999999998863 ) ;
#142 = AXIS2_PLACEMENT_3D ( 'NONE', #263, #149, #284 ) ;
#143 = CARTESIAN_POINT ( 'NONE',  ( 400.6033217521787151, 798.6577754558971947, 0.000000000000000000 ) ) ;
#144 = ORIENTED_EDGE ( 'NONE', *, *, #91, .F. ) ;
#145 = CYLINDRICAL_SURFACE ( 'NONE', #292, 13.99999999999938360 ) ;
#146 = ORIENTED_EDGE ( 'NONE', *, *, #121, .T. ) ;
#147 = CARTESIAN_POINT ( 'NONE',  ( 378.4136068546553702, 882.9169978162232155, 0.000000000000000000 ) ) ;
#148 = CIRCLE ( 'NONE', #215, 17.00000000000006040 ) ;
#149 = DIRECTION ( 'NONE',  ( 0.4067366430757980988, -0.9135454576426018658, 0.000000000000000000 ) ) ;
#150 = DIRECTION ( 'NONE',  ( 0.9335804264972563660, -0.3583679495451582708, 0.000000000000000000 ) ) ;
#151 = DIRECTION ( 'NONE',  ( -0.4067366430757980433, 0.9135454576426017548, -0.000000000000000000 ) ) ;
#152 = DIRECTION ( 'NONE',  ( -0.4067366430757980988, 0.9135454576426018658, -0.000000000000000000 ) ) ;
#153 = CARTESIAN_POINT ( 'NONE',  ( 378.2102385331175469, 883.3737705450444082, 0.000000000000000000 ) ) ;
#154 = DIRECTION ( 'NONE',  ( -0.9135454576426023099, -0.4067366430757967666, 0.000000000000000000 ) ) ;
#155 = CONICAL_SURFACE ( 'NONE', #125, 14.49999999999929301, 0.7853981633975101184 ) ;
#156 = DIRECTION ( 'NONE',  ( -0.4067366430757980433, 0.9135454576426017548, -0.000000000000000000 ) ) ;
#157 = PRODUCT ( 'CYC-040', 'CYC-040', '', ( #63 ) ) ;
#158 = FACE_OUTER_BOUND ( 'NONE', #1, .T. ) ;
#159 = VERTEX_POINT ( 'NONE', #97 ) ;
#160 = DIRECTION ( 'NONE',  ( -0.9135454576426018658, -0.4067366430757980988, 0.000000000000000000 ) ) ;
#161 = ORIENTED_EDGE ( 'NONE', *, *, #134, .F. ) ;
#162 =( GEOMETRIC_REPRESENTATION_CONTEXT ( 3 ) GLOBAL_UNCERTAINTY_ASSIGNED_CONTEXT ( ( #84 ) ) GLOBAL_UNIT_ASSIGNED_CONTEXT ( ( #170, #171, #16 ) ) REPRESENTATION_CONTEXT ( 'NONE', 'WORKASPACE' ) );
#163 = DIRECTION ( 'NONE',  ( 0.9135454576425644513, 0.4067366430758819762, 0.000000000000000000 ) ) ;
#164 = ORIENTED_EDGE ( 'NONE', *, *, #276, .F. ) ;
#165 = PLANE ( 'NONE',  #207 ) ;
#166 = ORIENTED_EDGE ( 'NONE', *, *, #272, .F. ) ;
#167 = LINE ( 'NONE', #169, #228 ) ;
#168 = ADVANCED_FACE ( 'NONE', ( #217 ), #274, .F. ) ;
#169 = CARTESIAN_POINT ( 'NONE',  ( 400.3499173448954593, 797.9976344055380650, 1.775737858763578001E-15 ) ) ;
#170 =( LENGTH_UNIT ( ) NAMED_UNIT ( * ) SI_UNIT ( .MILLI., .METRE. ) );
#171 =( NAMED_UNIT ( * ) PLANE_ANGLE_UNIT ( ) SI_UNIT ( $, .RADIAN. ) );
#172 = DIRECTION ( 'NONE',  ( 0.9135454576425637852, 0.4067366430758834750, 0.000000000000000000 ) ) ;
#173 = PRODUCT_DEFINITION_FORMATION_WITH_SPECIFIED_SOURCE ( 'ANY', '', #157, .NOT_KNOWN. ) ;
#174 = SURFACE_STYLE_USAGE ( .BOTH. , #175 ) ;
#175 = SURFACE_SIDE_STYLE ('',( #37 ) ) ;
#176 = AXIS2_PLACEMENT_3D ( 'NONE', #92, #236, #183 ) ;
#177 = EDGE_LOOP ( 'NONE', ( #136, #114, #161, #230 ) ) ;
#178 = DIRECTION ( 'NONE',  ( -0.9135454576426028650, -0.4067366430757961004, 0.000000000000000000 ) ) ;
#179 = VERTEX_POINT ( 'NONE', #101 ) ;
#180 = EDGE_CURVE ( 'NONE', #257, #213, #210, .T. ) ;
#181 = VECTOR ( 'NONE', #150, 999.9999999999998863 ) ;
#182 = EDGE_LOOP ( 'NONE', ( #32, #138, #51, #146 ) ) ;
#183 = DIRECTION ( 'NONE',  ( -0.9135454576426028650, -0.4067366430757961004, 0.000000000000000000 ) ) ;
#184 = ORIENTED_EDGE ( 'NONE', *, *, #69, .F. ) ;
#185 = ADVANCED_FACE ( 'NONE', ( #74 ), #189, .T. ) ;
#186 = FACE_OUTER_BOUND ( 'NONE', #28, .T. ) ;
#187 = ORIENTED_EDGE ( 'NONE', *, *, #218, .T. ) ;
#188 = AXIS2_PLACEMENT_3D ( 'NONE', #153, #80, #104 ) ;
#189 = CYLINDRICAL_SURFACE ( 'NONE', #52, 17.00000000000010658 ) ;
#190 = ORIENTED_EDGE ( 'NONE', *, *, #222, .F. ) ;
#191 = DIRECTION ( 'NONE',  ( -0.9135454576425637852, -0.4067366430758834750, 0.000000000000000000 ) ) ;
#192 = DIRECTION ( 'NONE',  ( -0.4067366430757980988, 0.9135454576426018658, 0.000000000000000000 ) ) ;
#193 = AXIS2_PLACEMENT_3D ( 'NONE', #131, #196, #291 ) ;
#194 = SHAPE_DEFINITION_REPRESENTATION ( #113, #55 ) ;
#195 = CARTESIAN_POINT ( 'NONE',  ( 378.4136068546553702, 882.9169978162232155, 0.000000000000000000 ) ) ;
#196 = DIRECTION ( 'NONE',  ( -0.4067366430757980433, 0.9135454576426017548, -0.000000000000000000 ) ) ;
#197 = CARTESIAN_POINT ( 'NONE',  ( 429.1265992606363397, 810.8098386624266141, 2.081899558550510929E-15 ) ) ;
#198 =( GEOMETRIC_REPRESENTATION_CONTEXT ( 3 ) GLOBAL_UNCERTAINTY_ASSIGNED_CONTEXT ( ( #17 ) ) GLOBAL_UNIT_ASSIGNED_CONTEXT ( ( #129, #66, #221 ) ) REPRESENTATION_CONTEXT ( 'NONE', 'WORKASPACE' ) );
#199 = DIRECTION ( 'NONE',  ( -0.9135454576426028650, -0.4067366430757961004, 0.000000000000000000 ) ) ;
#200 = EDGE_CURVE ( 'NONE', #93, #280, #43, .T. ) ;
#201 = DIRECTION ( 'NONE',  ( -0.4067366430757980988, 0.9135454576426018658, -0.000000000000000000 ) ) ;
#202 = CARTESIAN_POINT ( 'NONE',  ( 364.9638293972992074, 877.4760892204450329, 0.000000000000000000 ) ) ;
#203 = AXIS2_PLACEMENT_3D ( 'NONE', #205, #251, #82 ) ;
#204 = VERTEX_POINT ( 'NONE', #286 ) ;
#205 = CARTESIAN_POINT ( 'NONE',  ( 378.4136068546554270, 882.9169978162232155, 0.000000000000000000 ) ) ;
#206 = ORIENTED_EDGE ( 'NONE', *, *, #241, .T. ) ;
#207 = AXIS2_PLACEMENT_3D ( 'NONE', #258, #192, #160 ) ;
#208 = DIRECTION ( 'NONE',  ( -0.9135454576426027540, -0.4067366430757958784, 0.000000000000000000 ) ) ;
#209 = ORIENTED_EDGE ( 'NONE', *, *, #18, .F. ) ;
#210 = LINE ( 'NONE', #5, #141 ) ;
#211 = ORIENTED_EDGE ( 'NONE', *, *, #21, .T. ) ;
#212 = CARTESIAN_POINT ( 'NONE',  ( 400.3499173448960846, 797.9976344055398840, 1.775737858763414707E-15 ) ) ;
#213 = VERTEX_POINT ( 'NONE', #243 ) ;
#214 = AXIS2_PLACEMENT_3D ( 'NONE', #275, #295, #154 ) ;
#215 = AXIS2_PLACEMENT_3D ( 'NONE', #299, #85, #178 ) ;
#216 = FACE_OUTER_BOUND ( 'NONE', #182, .T. ) ;
#217 = FACE_OUTER_BOUND ( 'NONE', #98, .T. ) ;
#218 = EDGE_CURVE ( 'NONE', #159, #60, #245, .T. ) ;
#219 = CARTESIAN_POINT ( 'NONE',  ( 322.9346778217666838, 1007.524712600914313, 0.000000000000000000 ) ) ;
#220 = MECHANICAL_DESIGN_GEOMETRIC_PRESENTATION_REPRESENTATION (  '', ( #115 ), #162 ) ;
#221 =( NAMED_UNIT ( * ) SI_UNIT ( $, .STERADIAN. ) SOLID_ANGLE_UNIT ( ) );
#222 = EDGE_CURVE ( 'NONE', #118, #159, #102, .T. ) ;
#223 = DIRECTION ( 'NONE',  ( -0.4067366430757980988, 0.9135454576426018658, -0.000000000000000000 ) ) ;
#224 = FILL_AREA_STYLE ('',( #133 ) ) ;
#225 = AXIS2_PLACEMENT_3D ( 'NONE', #269, #151, #199 ) ;
#226 = CARTESIAN_POINT ( 'NONE',  ( 378.2102385331175469, 883.3737705450444082, 0.000000000000000000 ) ) ;
#227 = DIRECTION ( 'NONE',  ( 0.4067366430758828089, -0.9135454576425641182, -0.000000000000000000 ) ) ;
#228 = VECTOR ( 'NONE', #265, 1000.000000000000000 ) ;
#229 = ORIENTED_EDGE ( 'NONE', *, *, #270, .T. ) ;
#230 = ORIENTED_EDGE ( 'NONE', *, *, #180, .F. ) ;
#231 = DIRECTION ( 'NONE',  ( 0.4067366430758828089, -0.9135454576425641182, -0.000000000000000000 ) ) ;
#232 = ORIENTED_EDGE ( 'NONE', *, *, #21, .F. ) ;
#233 = CARTESIAN_POINT ( 'NONE',  ( 310.1450414147707875, 1001.830399597853443, 0.000000000000000000 ) ) ;
#234 = ADVANCED_FACE ( 'NONE', ( #247 ), #128, .F. ) ;
#235 = EDGE_LOOP ( 'NONE', ( #24, #206, #262, #30 ) ) ;
#236 = DIRECTION ( 'NONE',  ( -0.4067366430757980433, 0.9135454576426017548, -0.000000000000000000 ) ) ;
#237 = CLOSED_SHELL ( 'NONE', ( #168, #137, #234, #185, #96, #39, #72, #132, #100, #46 ) ) ;
#238 = ORIENTED_EDGE ( 'NONE', *, *, #44, .F. ) ;
#239 = FACE_BOUND ( 'NONE', #95, .T. ) ;
#240 = MANIFOLD_SOLID_BREP ( 'Stock-CYC-008-1', #237 ) ;
#241 = EDGE_CURVE ( 'NONE', #280, #118, #64, .T. ) ;
#242 = DIRECTION ( 'NONE',  ( -0.4067366430757980988, 0.9135454576426018658, -0.000000000000000000 ) ) ;
#243 = CARTESIAN_POINT ( 'NONE',  ( 362.6799657531933008, 876.4592476127556893, 0.000000000000000000 ) ) ;
#244 = CARTESIAN_POINT ( 'NONE',  ( 426.1825945661694277, 810.0464014620214357, 1.714505518806218513E-15 ) ) ;
#245 = CIRCLE ( 'NONE', #188, 14.50000000000059330 ) ;
#246 = DIRECTION ( 'NONE',  ( -0.9135454576426027540, -0.4067366430757958784, 0.000000000000000000 ) ) ;
#247 = FACE_OUTER_BOUND ( 'NONE', #235, .T. ) ;
#248 = DIRECTION ( 'NONE',  ( -0.9135454576426003115, -0.4067366430758015405, 0.000000000000000000 ) ) ;
#249 = CONICAL_SURFACE ( 'NONE', #203, 13.99999999999937117, 0.7853981633974805865 ) ;
#250 = AXIS2_PLACEMENT_3D ( 'NONE', #12, #13, #7 ) ;
#251 = DIRECTION ( 'NONE',  ( -0.4067366430758828089, 0.9135454576425641182, 0.000000000000000000 ) ) ;
#252 = APPLICATION_CONTEXT ( 'automotive_design' ) ;
#253 = ORIENTED_EDGE ( 'NONE', *, *, #270, .F. ) ;
#254 = CIRCLE ( 'NONE', #214, 14.49999999999796430 ) ;
#255 = CARTESIAN_POINT ( 'NONE',  ( 322.9346778217666838, 1007.524712600914313, 0.000000000000000000 ) ) ;
#256 = CIRCLE ( 'NONE', #225, 17.00000000000006040 ) ;
#257 = VERTEX_POINT ( 'NONE', #40 ) ;
#258 = CARTESIAN_POINT ( 'NONE',  ( 429.1265992606362829, 810.8098386624266141, 0.000000000000000000 ) ) ;
#259 = EDGE_CURVE ( 'NONE', #140, #179, #61, .T. ) ;
#260 = ORIENTED_EDGE ( 'NONE', *, *, #200, .F. ) ;
#261 = DIRECTION ( 'NONE',  ( 0.9135454576425637852, 0.4067366430758834750, 0.000000000000000000 ) ) ;
#262 = ORIENTED_EDGE ( 'NONE', *, *, #290, .T. ) ;
#263 = CARTESIAN_POINT ( 'NONE',  ( 390.9998749401133864, 889.0680835481052782, 0.000000000000000000 ) ) ;
#264 = AXIS2_PLACEMENT_3D ( 'NONE', #139, #201, #248 ) ;
#265 = DIRECTION ( 'NONE',  ( -0.3583679495452735675, -0.9335804264972119570, 8.659560562355469037E-17 ) ) ;
#266 = APPLICATION_PROTOCOL_DEFINITION ( 'draft international standard', 'automotive_design', 1998, #298 ) ;
#267 = PRODUCT_RELATED_PRODUCT_CATEGORY ( 'part', '', ( #157 ) ) ;
#268 = PRESENTATION_LAYER_ASSIGNMENT (  '', '', ( #115 ) ) ;
#269 = CARTESIAN_POINT ( 'NONE',  ( 413.5963264807119799, 803.8953157301378951, 0.000000000000000000 ) ) ;
#270 = EDGE_CURVE ( 'NONE', #280, #179, #19, .T. ) ;
#271 = CARTESIAN_POINT ( 'NONE',  ( 335.7243142287625233, 1013.219025603975297, 1.714505518806218513E-15 ) ) ;
#272 = EDGE_CURVE ( 'NONE', #285, #204, #20, .T. ) ;
#273 = PRESENTATION_STYLE_ASSIGNMENT (( #174 ) ) ;
#274 = CONICAL_SURFACE ( 'NONE', #73, 13.99999999999937117, 0.7853981633974805865 ) ;
#275 = CARTESIAN_POINT ( 'NONE',  ( 413.5963264807119799, 803.8953157301380088, 0.000000000000000000 ) ) ;
#276 = EDGE_CURVE ( 'NONE', #257, #285, #256, .T. ) ;
#277 = AXIS2_PLACEMENT_3D ( 'NONE', #195, #293, #172 ) ;
#278 = EDGE_LOOP ( 'NONE', ( #190, #71, #54, #77 ) ) ;
#279 = DIRECTION ( 'NONE',  ( 0.4067366430758828089, -0.9135454576425641182, -0.000000000000000000 ) ) ;
#280 = VERTEX_POINT ( 'NONE', #244 ) ;
#281 = DIRECTION ( 'NONE',  ( -0.4067366430757980988, 0.9135454576426018658, -0.000000000000000000 ) ) ;
#282 = AXIS2_PLACEMENT_3D ( 'NONE', #62, #231, #163 ) ;
#283 = ORIENTED_EDGE ( 'NONE', *, *, #259, .F. ) ;
#284 = DIRECTION ( 'NONE',  ( 0.9135454576426018658, 0.4067366430757980988, 0.000000000000000000 ) ) ;
#285 = VERTEX_POINT ( 'NONE', #197 ) ;
#286 = CARTESIAN_POINT ( 'NONE',  ( 393.7405113130419636, 890.2882934773330135, 2.081899558550510929E-15 ) ) ;
#287 = AXIS2_PLACEMENT_3D ( 'NONE', #6, #227, #67 ) ;
#288 = CARTESIAN_POINT ( 'NONE',  ( 365.6239704476600991, 877.2226848131610950, 0.000000000000000000 ) ) ;
#289 = CIRCLE ( 'NONE', #277, 13.99999999999937117 ) ;
#290 = EDGE_CURVE ( 'NONE', #118, #297, #289, .T. ) ;
#291 = DIRECTION ( 'NONE',  ( -0.9135454576426023099, -0.4067366430757967666, 0.000000000000000000 ) ) ;
#292 = AXIS2_PLACEMENT_3D ( 'NONE', #255, #29, #208 ) ;
#293 = DIRECTION ( 'NONE',  ( -0.4067366430758828089, 0.9135454576425641182, 0.000000000000000000 ) ) ;
#294 = CARTESIAN_POINT ( 'NONE',  ( 365.6239704476600423, 877.2226848131610950, 0.000000000000000000 ) ) ;
#295 = DIRECTION ( 'NONE',  ( -0.4067366430757980433, 0.9135454576426017548, -0.000000000000000000 ) ) ;
#296 = AXIS2_PLACEMENT_3D ( 'NONE', #226, #22, #110 ) ;
#297 = VERTEX_POINT ( 'NONE', #294 ) ;
#298 = APPLICATION_CONTEXT ( 'automotive_design' ) ;
#299 = CARTESIAN_POINT ( 'NONE',  ( 413.5963264807119799, 803.8953157301378951, 0.000000000000000000 ) ) ;
ENDSEC;
END-ISO-10303-21;
