ISO-10303-21;
HEADER;
FILE_DESCRIPTION (( 'STEP AP203' ),
    '1' );
FILE_NAME ('ROV-USI-004A-AXE MOBILE INF.STEP',
    '2024-05-22T08:48:29',
    ( '' ),
    ( '' ),
    'SwSTEP 2.0',
    'SolidWorks 2016',
    '' );
FILE_SCHEMA (( 'CONFIG_CONTROL_DESIGN' ));
ENDSEC;

DATA;
#1 = DIRECTION ( 'NONE',  ( 1.000000000000000000, 0.0000000000000000000, 0.0000000000000000000 ) ) ;
#2 = LINE ( 'NONE', #70, #204 ) ;
#3 = ORIENTED_EDGE ( 'NONE', *, *, #263, .F. ) ;
#4 = DIRECTION ( 'NONE',  ( -1.000000000000000000, -0.0000000000000000000, -0.0000000000000000000 ) ) ;
#5 = DIRECTION ( 'NONE',  ( -1.000000000000000000, -0.0000000000000000000, -0.0000000000000000000 ) ) ;
#6 = APPROVAL_PERSON_ORGANIZATION ( #104, #48, #279 ) ;
#7 = CARTESIAN_POINT ( 'NONE',  ( -75.00000000000000000, 4.286263797015736600E-016, -3.500000000000000000 ) ) ;
#8 = FACE_OUTER_BOUND ( 'NONE', #270, .T. ) ;
#9 = CIRCLE ( 'NONE', #297, 2.500000000000000000 ) ;
#10 = DIRECTION ( 'NONE',  ( -1.000000000000000000, -0.0000000000000000000, -0.0000000000000000000 ) ) ;
#11 = EDGE_LOOP ( 'NONE', ( #277, #143, #44, #262 ) ) ;
#12 = AXIS2_PLACEMENT_3D ( 'NONE', #67, #97, #310 ) ;
#13 = DIRECTION ( 'NONE',  ( 1.000000000000000000, 0.0000000000000000000, 0.0000000000000000000 ) ) ;
#14 = PRODUCT_DEFINITION_SHAPE ( 'NONE', 'NONE',  #281 ) ;
#15 = CARTESIAN_POINT ( 'NONE',  ( 75.00000000000000000, 0.0000000000000000000, 0.0000000000000000000 ) ) ;
#16 = DIRECTION ( 'NONE',  ( 1.000000000000000000, 0.0000000000000000000, 0.0000000000000000000 ) ) ;
#17 = DIRECTION ( 'NONE',  ( 0.0000000000000000000, 0.0000000000000000000, -1.000000000000000000 ) ) ;
#18 = DIRECTION ( 'NONE',  ( -1.000000000000000000, -0.0000000000000000000, -0.0000000000000000000 ) ) ;
#19 = ORIENTED_EDGE ( 'NONE', *, *, #316, .T. ) ;
#20 = PERSON_AND_ORGANIZATION_ROLE ( 'classification_officer' ) ;
#21 = PRODUCT ( 'ROV-USI-004A-AXE MOBILE INF', 'ROV-USI-004A-AXE MOBILE INF', '', ( #96 ) ) ;
#22 = AXIS2_PLACEMENT_3D ( 'NONE', #278, #208, #305 ) ;
#23 = FACE_OUTER_BOUND ( 'NONE', #93, .T. ) ;
#24 = DIRECTION ( 'NONE',  ( 1.000000000000000000, 0.0000000000000000000, 0.0000000000000000000 ) ) ;
#25 = DIRECTION ( 'NONE',  ( 0.0000000000000000000, 0.0000000000000000000, 1.000000000000000000 ) ) ;
#26 = ADVANCED_FACE ( 'NONE', ( #57 ), #74, .T. ) ;
#27 = APPROVAL_PERSON_ORGANIZATION ( #272, #39, #288 ) ;
#28 = ORIENTED_EDGE ( 'NONE', *, *, #144, .F. ) ;
#29 = AXIS2_PLACEMENT_3D ( 'NONE', #247, #13, #136 ) ;
#30 = CIRCLE ( 'NONE', #122, 2.500000000000000000 ) ;
#31 = DIRECTION ( 'NONE',  ( -1.000000000000000000, -0.0000000000000000000, -0.0000000000000000000 ) ) ;
#32 = DIRECTION ( 'NONE',  ( 0.0000000000000000000, 0.0000000000000000000, -1.000000000000000000 ) ) ;
#33 = PLANE ( 'NONE',  #185 ) ;
#34 = PERSON_AND_ORGANIZATION ( #327, #236 ) ;
#35 = FACE_BOUND ( 'NONE', #191, .T. ) ;
#36 = ORIENTED_EDGE ( 'NONE', *, *, #292, .T. ) ;
#37 = CARTESIAN_POINT ( 'NONE',  ( -74.99999999999998600, 3.061616997868383100E-016, -2.500000000000000000 ) ) ;
#38 = APPROVAL ( #282, 'UNSPECIFIED' ) ;
#39 = APPROVAL ( #126, 'UNSPECIFIED' ) ;
#40 = DIRECTION ( 'NONE',  ( 0.0000000000000000000, 0.0000000000000000000, -1.000000000000000000 ) ) ;
#41 = CARTESIAN_POINT ( 'NONE',  ( 75.00000000000000000, 0.0000000000000000000, 0.0000000000000000000 ) ) ;
#42 = APPLICATION_CONTEXT ( 'configuration controlled 3d designs of mechanical parts and assemblies' ) ;
#43 = CARTESIAN_POINT ( 'NONE',  ( 132.0710678118654800, 0.0000000000000000000, 0.0000000000000000000 ) ) ;
#44 = ORIENTED_EDGE ( 'NONE', *, *, #116, .T. ) ;
#45 = EDGE_CURVE ( 'NONE', #183, #178, #313, .T. ) ;
#46 = PERSON_AND_ORGANIZATION_ROLE ( 'design_supplier' ) ;
#47 = CARTESIAN_POINT ( 'NONE',  ( 75.00000000000000000, 0.0000000000000000000, 3.500000000000000000 ) ) ;
#48 = APPROVAL ( #207, 'UNSPECIFIED' ) ;
#49 = VERTEX_POINT ( 'NONE', #189 ) ;
#50 = PERSON_AND_ORGANIZATION ( #327, #236 ) ;
#51 = VERTEX_POINT ( 'NONE', #215 ) ;
#52 = CC_DESIGN_APPROVAL ( #39, ( #77 ) ) ;
#53 = AXIS2_PLACEMENT_3D ( 'NONE', #155, #1, #240 ) ;
#54 = ORIENTED_EDGE ( 'NONE', *, *, #193, .F. ) ;
#55 = ORIENTED_EDGE ( 'NONE', *, *, #62, .F. ) ;
#56 = VECTOR ( 'NONE', #146, 1000.000000000000000 ) ;
#57 = FACE_OUTER_BOUND ( 'NONE', #217, .T. ) ;
#58 = AXIS2_PLACEMENT_3D ( 'NONE', #43, #18, #202 ) ;
#59 = DIRECTION ( 'NONE',  ( 0.0000000000000000000, 0.0000000000000000000, -1.000000000000000000 ) ) ;
#60 = CIRCLE ( 'NONE', #328, 2.500000000000000000 ) ;
#61 = CYLINDRICAL_SURFACE ( 'NONE', #289, 3.500000000000000000 ) ;
#62 = EDGE_CURVE ( 'NONE', #63, #182, #286, .T. ) ;
#63 = VERTEX_POINT ( 'NONE', #163 ) ;
#64 = CC_DESIGN_APPROVAL ( #38, ( #220 ) ) ;
#65 = ORIENTED_EDGE ( 'NONE', *, *, #103, .F. ) ;
#66 = ADVANCED_FACE ( 'NONE', ( #35, #295 ), #33, .T. ) ;
#67 = CARTESIAN_POINT ( 'NONE',  ( 100.0000000000000000, 0.0000000000000000000, 0.0000000000000000000 ) ) ;
#68 = APPROVAL_DATE_TIME ( #231, #39 ) ;
#69 = PERSON_AND_ORGANIZATION ( #327, #236 ) ;
#70 = CARTESIAN_POINT ( 'NONE',  ( 75.00000000000000000, 0.0000000000000000000, 3.500000000000000000 ) ) ;
#71 = VERTEX_POINT ( 'NONE', #37 ) ;
#72 = CARTESIAN_POINT ( 'NONE',  ( -74.99999999999998600, 0.0000000000000000000, 0.0000000000000000000 ) ) ;
#73 = CYLINDRICAL_SURFACE ( 'NONE', #141, 2.500000000000000000 ) ;
#74 = CYLINDRICAL_SURFACE ( 'NONE', #280, 2.500000000000000000 ) ;
#75 = DIRECTION ( 'NONE',  ( 0.0000000000000000000, 0.0000000000000000000, 1.000000000000000000 ) ) ;
#76 = ADVANCED_BREP_SHAPE_REPRESENTATION ( 'ROV-USI-004A-AXE MOBILE INF', ( #138, #311 ), #200 ) ;
#77 = SECURITY_CLASSIFICATION ( '', '', #177 ) ;
#78 = CALENDAR_DATE ( 2024, 22, 5 ) ;
#79 = PERSON_AND_ORGANIZATION ( #327, #236 ) ;
#80 = CARTESIAN_POINT ( 'NONE',  ( 100.0000000000000000, 3.061616997868383100E-016, -2.500000000000000000 ) ) ;
#81 = ORIENTED_EDGE ( 'NONE', *, *, #82, .T. ) ;
#82 = EDGE_CURVE ( 'NONE', #287, #51, #9, .T. ) ;
#83 = ORIENTED_EDGE ( 'NONE', *, *, #128, .F. ) ;
#84 = DIRECTION ( 'NONE',  ( 0.0000000000000000000, 0.0000000000000000000, 1.000000000000000000 ) ) ;
#85 = DIRECTION ( 'NONE',  ( -1.000000000000000000, -0.0000000000000000000, -0.0000000000000000000 ) ) ;
#86 = CIRCLE ( 'NONE', #22, 3.500000000000000000 ) ;
#87 = AXIS2_PLACEMENT_3D ( 'NONE', #225, #10, #196 ) ;
#88 = FACE_BOUND ( 'NONE', #129, .T. ) ;
#89 = DIRECTION ( 'NONE',  ( 0.0000000000000000000, 0.0000000000000000000, -1.000000000000000000 ) ) ;
#90 = DIRECTION ( 'NONE',  ( 0.0000000000000000000, 0.0000000000000000000, -1.000000000000000000 ) ) ;
#91 = AXIS2_PLACEMENT_3D ( 'NONE', #266, #162, #32 ) ;
#92 = DATE_AND_TIME ( #78, #294 ) ;
#93 = EDGE_LOOP ( 'NONE', ( #257, #314 ) ) ;
#94 = DIRECTION ( 'NONE',  ( -1.000000000000000000, -0.0000000000000000000, -0.0000000000000000000 ) ) ;
#95 = ADVANCED_FACE ( 'NONE', ( #221 ), #269, .T. ) ;
#96 = MECHANICAL_CONTEXT ( 'NONE', #42, 'mechanical' ) ;
#97 = DIRECTION ( 'NONE',  ( 1.000000000000000000, 0.0000000000000000000, 0.0000000000000000000 ) ) ;
#98 = PERSON_AND_ORGANIZATION_ROLE ( 'design_owner' ) ;
#99 = ADVANCED_FACE ( 'NONE', ( #88, #241 ), #167, .F. ) ;
#100 = VERTEX_POINT ( 'NONE', #168 ) ;
#101 = CARTESIAN_POINT ( 'NONE',  ( 75.00000000000000000, 0.0000000000000000000, 2.500000000000000000 ) ) ;
#102 = ORIENTED_EDGE ( 'NONE', *, *, #62, .T. ) ;
#103 = EDGE_CURVE ( 'NONE', #242, #157, #2, .T. ) ;
#104 = PERSON_AND_ORGANIZATION ( #327, #236 ) ;
#105 = EDGE_LOOP ( 'NONE', ( #55, #134, #206, #19 ) ) ;
#106 = AXIS2_PLACEMENT_3D ( 'NONE', #274, #16, #17 ) ;
#107 = PERSON_AND_ORGANIZATION ( #327, #236 ) ;
#108 = CIRCLE ( 'NONE', #180, 2.500000000000000000 ) ;
#109 = CARTESIAN_POINT ( 'NONE',  ( 132.0710678118654800, 0.0000000000000000000, 0.0000000000000000000 ) ) ;
#110 = ORIENTED_EDGE ( 'NONE', *, *, #316, .F. ) ;
#111 = EDGE_CURVE ( 'NONE', #283, #49, #150, .T. ) ;
#112 = DIRECTION ( 'NONE',  ( 0.0000000000000000000, 0.0000000000000000000, -1.000000000000000000 ) ) ;
#113 = CYLINDRICAL_SURFACE ( 'NONE', #308, 2.500000000000000000 ) ;
#114 = ORIENTED_EDGE ( 'NONE', *, *, #226, .T. ) ;
#115 = DIRECTION ( 'NONE',  ( -1.000000000000000000, -0.0000000000000000000, -0.0000000000000000000 ) ) ;
#116 = EDGE_CURVE ( 'NONE', #183, #287, #293, .T. ) ;
#117 = VECTOR ( 'NONE', #85, 1000.000000000000000 ) ;
#118 = PERSON_AND_ORGANIZATION_ROLE ( 'creator' ) ;
#119 = ORIENTED_EDGE ( 'NONE', *, *, #213, .T. ) ;
#120 = CC_DESIGN_SECURITY_CLASSIFICATION ( #77, ( #220 ) ) ;
#121 = APPROVAL_ROLE ( '' ) ;
#122 = AXIS2_PLACEMENT_3D ( 'NONE', #72, #290, #246 ) ;
#123 = CARTESIAN_POINT ( 'NONE',  ( -74.99999999999998600, 0.0000000000000000000, 2.500000000000000000 ) ) ;
#124 = ADVANCED_FACE ( 'NONE', ( #156 ), #190, .T. ) ;
#125 = FACE_OUTER_BOUND ( 'NONE', #309, .T. ) ;
#126 = APPROVAL_STATUS ( 'not_yet_approved' ) ;
#127 = CARTESIAN_POINT ( 'NONE',  ( 75.00000000000000000, 0.0000000000000000000, 0.0000000000000000000 ) ) ;
#128 = EDGE_CURVE ( 'NONE', #63, #242, #233, .T. ) ;
#129 = EDGE_LOOP ( 'NONE', ( #199, #28 ) ) ;
#130 = ORIENTED_EDGE ( 'NONE', *, *, #285, .T. ) ;
#131 = AXIS2_PLACEMENT_3D ( 'NONE', #318, #5, #59 ) ;
#132 = DIRECTION ( 'NONE',  ( 0.0000000000000000000, 0.0000000000000000000, 1.000000000000000000 ) ) ;
#133 = DIRECTION ( 'NONE',  ( -1.000000000000000000, -0.0000000000000000000, -0.0000000000000000000 ) ) ;
#134 = ORIENTED_EDGE ( 'NONE', *, *, #213, .F. ) ;
#135 = ORIENTED_EDGE ( 'NONE', *, *, #111, .F. ) ;
#136 = DIRECTION ( 'NONE',  ( 0.0000000000000000000, 0.0000000000000000000, -1.000000000000000000 ) ) ;
#137 = LOCAL_TIME ( 10, 48, 29.00000000000000000, #216 ) ;
#138 = MANIFOLD_SOLID_BREP ( 'Boss.-Extru.2', #252 ) ;
#139 = AXIS2_PLACEMENT_3D ( 'NONE', #304, #203, #276 ) ;
#140 = LOCAL_TIME ( 10, 48, 29.00000000000000000, #319 ) ;
#141 = AXIS2_PLACEMENT_3D ( 'NONE', #323, #223, #84 ) ;
#142 = CIRCLE ( 'NONE', #139, 3.500000000000000000 ) ;
#143 = ORIENTED_EDGE ( 'NONE', *, *, #45, .F. ) ;
#144 = EDGE_CURVE ( 'NONE', #71, #283, #30, .T. ) ;
#145 = CC_DESIGN_PERSON_AND_ORGANIZATION_ASSIGNMENT ( #107, #20, ( #77 ) ) ;
#146 = DIRECTION ( 'NONE',  ( -1.000000000000000000, -0.0000000000000000000, -0.0000000000000000000 ) ) ;
#147 = ADVANCED_FACE ( 'NONE', ( #228 ), #61, .T. ) ;
#148 = CALENDAR_DATE ( 2024, 22, 5 ) ;
#149 = APPLICATION_PROTOCOL_DEFINITION ( 'international standard', 'config_control_design', 1994, #42 ) ;
#150 = LINE ( 'NONE', #212, #237 ) ;
#151 = CARTESIAN_POINT ( 'NONE',  ( 132.0710678118654800, 0.0000000000000000000, 2.500000000000000000 ) ) ;
#152 = PRODUCT_RELATED_PRODUCT_CATEGORY ( 'detail', '', ( #21 ) ) ;
#153 = CC_DESIGN_APPROVAL ( #48, ( #281 ) ) ;
#154 = APPROVAL_DATE_TIME ( #232, #48 ) ;
#155 = CARTESIAN_POINT ( 'NONE',  ( 100.0000000000000000, 0.0000000000000000000, 0.0000000000000000000 ) ) ;
#156 = FACE_OUTER_BOUND ( 'NONE', #105, .T. ) ;
#157 = VERTEX_POINT ( 'NONE', #187 ) ;
#158 = DIRECTION ( 'NONE',  ( -1.000000000000000000, -0.0000000000000000000, -0.0000000000000000000 ) ) ;
#159 = CARTESIAN_POINT ( 'NONE',  ( 132.0710678118654800, 0.0000000000000000000, 0.0000000000000000000 ) ) ;
#160 = DIRECTION ( 'NONE',  ( 0.0000000000000000000, 0.0000000000000000000, 1.000000000000000000 ) ) ;
#161 = ORIENTED_EDGE ( 'NONE', *, *, #193, .T. ) ;
#162 = DIRECTION ( 'NONE',  ( 1.000000000000000000, 0.0000000000000000000, 0.0000000000000000000 ) ) ;
#163 = CARTESIAN_POINT ( 'NONE',  ( 75.00000000000000000, 4.286263797015736600E-016, -3.500000000000000000 ) ) ;
#164 = ORIENTED_EDGE ( 'NONE', *, *, #302, .T. ) ;
#165 = EDGE_CURVE ( 'NONE', #100, #49, #198, .T. ) ;
#166 = EDGE_LOOP ( 'NONE', ( #3, #36, #264, #258 ) ) ;
#167 = PLANE ( 'NONE',  #260 ) ;
#168 = CARTESIAN_POINT ( 'NONE',  ( -100.0000000000000000, 3.061616997868383100E-016, -2.500000000000000000 ) ) ;
#169 = UNCERTAINTY_MEASURE_WITH_UNIT (LENGTH_MEASURE( 1.000000000000000100E-005 ), #175, 'distance_accuracy_value', 'NONE');
#170 = CC_DESIGN_PERSON_AND_ORGANIZATION_ASSIGNMENT ( #69, #98, ( #21 ) ) ;
#171 = DATE_AND_TIME ( #331, #140 ) ;
#172 = DESIGN_CONTEXT ( 'detailed design', #307, 'design' ) ;
#173 = LINE ( 'NONE', #312, #117 ) ;
#174 = ORIENTED_EDGE ( 'NONE', *, *, #111, .T. ) ;
#175 =( LENGTH_UNIT ( ) NAMED_UNIT ( * ) SI_UNIT ( .MILLI., .METRE. ) );
#176 = ADVANCED_FACE ( 'NONE', ( #267 ), #113, .T. ) ;
#177 = SECURITY_CLASSIFICATION_LEVEL ( 'unclassified' ) ;
#178 = VERTEX_POINT ( 'NONE', #80 ) ;
#179 = DIRECTION ( 'NONE',  ( 0.0000000000000000000, 0.0000000000000000000, -1.000000000000000000 ) ) ;
#180 = AXIS2_PLACEMENT_3D ( 'NONE', #201, #94, #90 ) ;
#181 = DIRECTION ( 'NONE',  ( 1.000000000000000000, 0.0000000000000000000, 0.0000000000000000000 ) ) ;
#182 = VERTEX_POINT ( 'NONE', #7 ) ;
#183 = VERTEX_POINT ( 'NONE', #268 ) ;
#184 = DATE_TIME_ROLE ( 'classification_date' ) ;
#185 = AXIS2_PLACEMENT_3D ( 'NONE', #192, #271, #40 ) ;
#186 = EDGE_CURVE ( 'NONE', #51, #287, #60, .T. ) ;
#187 = CARTESIAN_POINT ( 'NONE',  ( -75.00000000000000000, 0.0000000000000000000, 3.500000000000000000 ) ) ;
#188 = CALENDAR_DATE ( 2024, 22, 5 ) ;
#189 = CARTESIAN_POINT ( 'NONE',  ( -100.0000000000000000, 0.0000000000000000000, 2.500000000000000000 ) ) ;
#190 = CYLINDRICAL_SURFACE ( 'NONE', #244, 3.500000000000000000 ) ;
#191 = EDGE_LOOP ( 'NONE', ( #81, #245 ) ) ;
#192 = CARTESIAN_POINT ( 'NONE',  ( 75.00000000000000000, 0.0000000000000000000, 0.0000000000000000000 ) ) ;
#193 = EDGE_CURVE ( 'NONE', #182, #157, #291, .T. ) ;
#194 = CIRCLE ( 'NONE', #53, 2.500000000000000000 ) ;
#195 = CARTESIAN_POINT ( 'NONE',  ( 75.00000000000000000, 4.286263797015736600E-016, -3.500000000000000000 ) ) ;
#196 = DIRECTION ( 'NONE',  ( 0.0000000000000000000, 0.0000000000000000000, -1.000000000000000000 ) ) ;
#197 = COORDINATED_UNIVERSAL_TIME_OFFSET ( 1, 0, .AHEAD. ) ;
#198 = CIRCLE ( 'NONE', #131, 2.500000000000000000 ) ;
#199 = ORIENTED_EDGE ( 'NONE', *, *, #302, .F. ) ;
#200 =( GEOMETRIC_REPRESENTATION_CONTEXT ( 3 ) GLOBAL_UNCERTAINTY_ASSIGNED_CONTEXT ( ( #169 ) ) GLOBAL_UNIT_ASSIGNED_CONTEXT ( ( #175, #254, #227 ) ) REPRESENTATION_CONTEXT ( 'NONE', 'WORKASPACE' ) );
#201 = CARTESIAN_POINT ( 'NONE',  ( -74.99999999999998600, 0.0000000000000000000, 0.0000000000000000000 ) ) ;
#202 = DIRECTION ( 'NONE',  ( 0.0000000000000000000, 0.0000000000000000000, 1.000000000000000000 ) ) ;
#203 = DIRECTION ( 'NONE',  ( 1.000000000000000000, 0.0000000000000000000, 0.0000000000000000000 ) ) ;
#204 = VECTOR ( 'NONE', #211, 1000.000000000000000 ) ;
#205 = ADVANCED_FACE ( 'NONE', ( #125 ), #73, .T. ) ;
#206 = ORIENTED_EDGE ( 'NONE', *, *, #103, .T. ) ;
#207 = APPROVAL_STATUS ( 'not_yet_approved' ) ;
#208 = DIRECTION ( 'NONE',  ( 1.000000000000000000, 0.0000000000000000000, 0.0000000000000000000 ) ) ;
#209 = PERSON_AND_ORGANIZATION_ROLE ( 'creator' ) ;
#210 = ADVANCED_FACE ( 'NONE', ( #8 ), #325, .F. ) ;
#211 = DIRECTION ( 'NONE',  ( -1.000000000000000000, -0.0000000000000000000, -0.0000000000000000000 ) ) ;
#212 = CARTESIAN_POINT ( 'NONE',  ( 132.0710678118654800, 0.0000000000000000000, 2.500000000000000000 ) ) ;
#213 = EDGE_CURVE ( 'NONE', #242, #63, #86, .T. ) ;
#214 = ORIENTED_EDGE ( 'NONE', *, *, #165, .F. ) ;
#215 = CARTESIAN_POINT ( 'NONE',  ( 75.00000000000000000, 3.061616997868383100E-016, -2.500000000000000000 ) ) ;
#216 = COORDINATED_UNIVERSAL_TIME_OFFSET ( 1, 0, .AHEAD. ) ;
#217 = EDGE_LOOP ( 'NONE', ( #164, #114, #222, #135 ) ) ;
#218 = CARTESIAN_POINT ( 'NONE',  ( 75.00000000000000000, 0.0000000000000000000, 0.0000000000000000000 ) ) ;
#219 = LOCAL_TIME ( 10, 48, 29.00000000000000000, #239 ) ;
#220 = PRODUCT_DEFINITION_FORMATION_WITH_SPECIFIED_SOURCE ( 'ANY', '', #21, .NOT_KNOWN. ) ;
#221 = FACE_OUTER_BOUND ( 'NONE', #166, .T. ) ;
#222 = ORIENTED_EDGE ( 'NONE', *, *, #285, .F. ) ;
#223 = DIRECTION ( 'NONE',  ( -1.000000000000000000, -0.0000000000000000000, -0.0000000000000000000 ) ) ;
#224 = DIRECTION ( 'NONE',  ( -1.000000000000000000, -0.0000000000000000000, -0.0000000000000000000 ) ) ;
#225 = CARTESIAN_POINT ( 'NONE',  ( -100.0000000000000000, 0.0000000000000000000, 0.0000000000000000000 ) ) ;
#226 = EDGE_CURVE ( 'NONE', #71, #100, #329, .T. ) ;
#227 =( NAMED_UNIT ( * ) SI_UNIT ( $, .STERADIAN. ) SOLID_ANGLE_UNIT ( ) );
#228 = FACE_OUTER_BOUND ( 'NONE', #330, .T. ) ;
#229 = DIRECTION ( 'NONE',  ( -1.000000000000000000, -0.0000000000000000000, -0.0000000000000000000 ) ) ;
#230 = DIRECTION ( 'NONE',  ( 0.0000000000000000000, 0.0000000000000000000, -1.000000000000000000 ) ) ;
#231 = DATE_AND_TIME ( #148, #137 ) ;
#232 = DATE_AND_TIME ( #188, #324 ) ;
#233 = CIRCLE ( 'NONE', #91, 3.500000000000000000 ) ;
#234 = APPLICATION_PROTOCOL_DEFINITION ( 'international standard', 'config_control_design', 1994, #307 ) ;
#235 = PLANE ( 'NONE',  #12 ) ;
#236 = ORGANIZATION ( 'UNSPECIFIED', 'UNSPECIFIED', '' ) ;
#237 = VECTOR ( 'NONE', #115, 1000.000000000000000 ) ;
#238 = ADVANCED_FACE ( 'NONE', ( #23 ), #235, .T. ) ;
#239 = COORDINATED_UNIVERSAL_TIME_OFFSET ( 1, 0, .AHEAD. ) ;
#240 = DIRECTION ( 'NONE',  ( 0.0000000000000000000, 0.0000000000000000000, -1.000000000000000000 ) ) ;
#241 = FACE_OUTER_BOUND ( 'NONE', #335, .T. ) ;
#242 = VERTEX_POINT ( 'NONE', #47 ) ;
#243 = CC_DESIGN_DATE_AND_TIME_ASSIGNMENT ( #92, #184, ( #77 ) ) ;
#244 = AXIS2_PLACEMENT_3D ( 'NONE', #127, #158, #25 ) ;
#245 = ORIENTED_EDGE ( 'NONE', *, *, #186, .T. ) ;
#246 = DIRECTION ( 'NONE',  ( 0.0000000000000000000, 0.0000000000000000000, -1.000000000000000000 ) ) ;
#247 = CARTESIAN_POINT ( 'NONE',  ( 100.0000000000000000, 0.0000000000000000000, 0.0000000000000000000 ) ) ;
#248 = CC_DESIGN_PERSON_AND_ORGANIZATION_ASSIGNMENT ( #79, #118, ( #281 ) ) ;
#249 = PERSON_AND_ORGANIZATION ( #327, #236 ) ;
#250 = VECTOR ( 'NONE', #224, 1000.000000000000000 ) ;
#251 = ORIENTED_EDGE ( 'NONE', *, *, #144, .T. ) ;
#252 = CLOSED_SHELL ( 'NONE', ( #95, #26, #147, #124, #66, #99, #210, #205, #176, #238 ) ) ;
#253 = DIRECTION ( 'NONE',  ( 1.000000000000000000, 0.0000000000000000000, 0.0000000000000000000 ) ) ;
#254 =( NAMED_UNIT ( * ) PLANE_ANGLE_UNIT ( ) SI_UNIT ( $, .RADIAN. ) );
#255 = CARTESIAN_POINT ( 'NONE',  ( -100.0000000000000000, 0.0000000000000000000, 0.0000000000000000000 ) ) ;
#256 = CALENDAR_DATE ( 2024, 22, 5 ) ;
#257 = ORIENTED_EDGE ( 'NONE', *, *, #45, .T. ) ;
#258 = ORIENTED_EDGE ( 'NONE', *, *, #116, .F. ) ;
#259 = CARTESIAN_POINT ( 'NONE',  ( -75.00000000000000000, 0.0000000000000000000, 0.0000000000000000000 ) ) ;
#260 = AXIS2_PLACEMENT_3D ( 'NONE', #259, #253, #89 ) ;
#261 = DATE_TIME_ROLE ( 'creation_date' ) ;
#262 = ORIENTED_EDGE ( 'NONE', *, *, #186, .F. ) ;
#263 = EDGE_CURVE ( 'NONE', #178, #183, #194, .T. ) ;
#264 = ORIENTED_EDGE ( 'NONE', *, *, #82, .F. ) ;
#265 = APPROVAL_PERSON_ORGANIZATION ( #50, #38, #121 ) ;
#266 = CARTESIAN_POINT ( 'NONE',  ( 75.00000000000000000, 0.0000000000000000000, 0.0000000000000000000 ) ) ;
#267 = FACE_OUTER_BOUND ( 'NONE', #11, .T. ) ;
#268 = CARTESIAN_POINT ( 'NONE',  ( 100.0000000000000000, 0.0000000000000000000, 2.500000000000000000 ) ) ;
#269 = CYLINDRICAL_SURFACE ( 'NONE', #58, 2.500000000000000000 ) ;
#270 = EDGE_LOOP ( 'NONE', ( #130, #299 ) ) ;
#271 = DIRECTION ( 'NONE',  ( 1.000000000000000000, 0.0000000000000000000, 0.0000000000000000000 ) ) ;
#272 = PERSON_AND_ORGANIZATION ( #327, #236 ) ;
#273 = CARTESIAN_POINT ( 'NONE',  ( 0.0000000000000000000, 0.0000000000000000000, 0.0000000000000000000 ) ) ;
#274 = CARTESIAN_POINT ( 'NONE',  ( -75.00000000000000000, 0.0000000000000000000, 0.0000000000000000000 ) ) ;
#275 = CC_DESIGN_DATE_AND_TIME_ASSIGNMENT ( #171, #261, ( #281 ) ) ;
#276 = DIRECTION ( 'NONE',  ( 0.0000000000000000000, 0.0000000000000000000, -1.000000000000000000 ) ) ;
#277 = ORIENTED_EDGE ( 'NONE', *, *, #292, .F. ) ;
#278 = CARTESIAN_POINT ( 'NONE',  ( 75.00000000000000000, 0.0000000000000000000, 0.0000000000000000000 ) ) ;
#279 = APPROVAL_ROLE ( '' ) ;
#280 = AXIS2_PLACEMENT_3D ( 'NONE', #109, #133, #160 ) ;
#281 = PRODUCT_DEFINITION ( 'UNKNOWN', '', #220, #172 ) ;
#282 = APPROVAL_STATUS ( 'not_yet_approved' ) ;
#283 = VERTEX_POINT ( 'NONE', #123 ) ;
#284 = DATE_AND_TIME ( #256, #219 ) ;
#285 = EDGE_CURVE ( 'NONE', #49, #100, #298, .T. ) ;
#286 = LINE ( 'NONE', #195, #250 ) ;
#287 = VERTEX_POINT ( 'NONE', #101 ) ;
#288 = APPROVAL_ROLE ( '' ) ;
#289 = AXIS2_PLACEMENT_3D ( 'NONE', #218, #4, #132 ) ;
#290 = DIRECTION ( 'NONE',  ( -1.000000000000000000, -0.0000000000000000000, -0.0000000000000000000 ) ) ;
#291 = CIRCLE ( 'NONE', #106, 3.500000000000000000 ) ;
#292 = EDGE_CURVE ( 'NONE', #178, #51, #173, .T. ) ;
#293 = LINE ( 'NONE', #151, #333 ) ;
#294 = LOCAL_TIME ( 10, 48, 29.00000000000000000, #197 ) ;
#295 = FACE_OUTER_BOUND ( 'NONE', #321, .T. ) ;
#296 = CC_DESIGN_PERSON_AND_ORGANIZATION_ASSIGNMENT ( #34, #46, ( #220 ) ) ;
#297 = AXIS2_PLACEMENT_3D ( 'NONE', #15, #326, #112 ) ;
#298 = CIRCLE ( 'NONE', #87, 2.500000000000000000 ) ;
#299 = ORIENTED_EDGE ( 'NONE', *, *, #165, .T. ) ;
#300 = CC_DESIGN_PERSON_AND_ORGANIZATION_ASSIGNMENT ( #249, #209, ( #220 ) ) ;
#301 = SHAPE_DEFINITION_REPRESENTATION ( #14, #76 ) ;
#302 = EDGE_CURVE ( 'NONE', #283, #71, #108, .T. ) ;
#303 = ORIENTED_EDGE ( 'NONE', *, *, #128, .T. ) ;
#304 = CARTESIAN_POINT ( 'NONE',  ( -75.00000000000000000, 0.0000000000000000000, 0.0000000000000000000 ) ) ;
#305 = DIRECTION ( 'NONE',  ( 0.0000000000000000000, 0.0000000000000000000, -1.000000000000000000 ) ) ;
#306 = COORDINATED_UNIVERSAL_TIME_OFFSET ( 1, 0, .AHEAD. ) ;
#307 = APPLICATION_CONTEXT ( 'configuration controlled 3d designs of mechanical parts and assemblies' ) ;
#308 = AXIS2_PLACEMENT_3D ( 'NONE', #159, #31, #75 ) ;
#309 = EDGE_LOOP ( 'NONE', ( #317, #251, #174, #214 ) ) ;
#310 = DIRECTION ( 'NONE',  ( 0.0000000000000000000, 0.0000000000000000000, -1.000000000000000000 ) ) ;
#311 = AXIS2_PLACEMENT_3D ( 'NONE', #273, #332, #181 ) ;
#312 = CARTESIAN_POINT ( 'NONE',  ( 132.0710678118654800, 3.061616997868383100E-016, -2.500000000000000000 ) ) ;
#313 = CIRCLE ( 'NONE', #29, 2.500000000000000000 ) ;
#314 = ORIENTED_EDGE ( 'NONE', *, *, #263, .T. ) ;
#315 = DIRECTION ( 'NONE',  ( -1.000000000000000000, -0.0000000000000000000, -0.0000000000000000000 ) ) ;
#316 = EDGE_CURVE ( 'NONE', #157, #182, #142, .T. ) ;
#317 = ORIENTED_EDGE ( 'NONE', *, *, #226, .F. ) ;
#318 = CARTESIAN_POINT ( 'NONE',  ( -100.0000000000000000, 0.0000000000000000000, 0.0000000000000000000 ) ) ;
#319 = COORDINATED_UNIVERSAL_TIME_OFFSET ( 1, 0, .AHEAD. ) ;
#320 = APPROVAL_DATE_TIME ( #284, #38 ) ;
#321 = EDGE_LOOP ( 'NONE', ( #119, #303 ) ) ;
#322 = AXIS2_PLACEMENT_3D ( 'NONE', #255, #24, #179 ) ;
#323 = CARTESIAN_POINT ( 'NONE',  ( 132.0710678118654800, 0.0000000000000000000, 0.0000000000000000000 ) ) ;
#324 = LOCAL_TIME ( 10, 48, 29.00000000000000000, #306 ) ;
#325 = PLANE ( 'NONE',  #322 ) ;
#326 = DIRECTION ( 'NONE',  ( -1.000000000000000000, -0.0000000000000000000, -0.0000000000000000000 ) ) ;
#327 = PERSON ( 'UNSPECIFIED', 'UNSPECIFIED', 'UNSPECIFIED', ('UNSPECIFIED'), ('UNSPECIFIED'), ('UNSPECIFIED') ) ;
#328 = AXIS2_PLACEMENT_3D ( 'NONE', #41, #229, #230 ) ;
#329 = LINE ( 'NONE', #334, #56 ) ;
#330 = EDGE_LOOP ( 'NONE', ( #83, #102, #161, #65 ) ) ;
#331 = CALENDAR_DATE ( 2024, 22, 5 ) ;
#332 = DIRECTION ( 'NONE',  ( 0.0000000000000000000, 0.0000000000000000000, 1.000000000000000000 ) ) ;
#333 = VECTOR ( 'NONE', #315, 1000.000000000000000 ) ;
#334 = CARTESIAN_POINT ( 'NONE',  ( 132.0710678118654800, 3.061616997868383100E-016, -2.500000000000000000 ) ) ;
#335 = EDGE_LOOP ( 'NONE', ( #110, #54 ) ) ;
ENDSEC;
END-ISO-10303-21;
