ISO-10303-21;
HEADER;
FILE_DESCRIPTION(('STEP AP214'),'1');
FILE_NAME('Douille D16.stp','2024-03-22T14:32:29',(' '),(' '),'Spatial InterOp 3D',' ',' ');
FILE_SCHEMA(('AUTOMOTIVE_DESIGN { 1 0 10303 214 1 1 1 1 }'));
ENDSEC;
DATA;
#1=MECHANICAL_DESIGN_GEOMETRIC_PRESENTATION_REPRESENTATION(' ',(#58,#59,#60,#61,#62,#63,#64,#65,#66,#67,#68),#6);
#2=PRODUCT_DEFINITION_CONTEXT('',#69,'design');
#3=APPLICATION_PROTOCOL_DEFINITION('INTERNATIONAL STANDARD','automotive_design',1994,#69);
#4=PRODUCT_CATEGORY_RELATIONSHIP('NONE','NONE',#70,#71);
#5=SHAPE_DEFINITION_REPRESENTATION(#72,#73);
#6= (GEOMETRIC_REPRESENTATION_CONTEXT(3)GLOBAL_UNCERTAINTY_ASSIGNED_CONTEXT((#76))GLOBAL_UNIT_ASSIGNED_CONTEXT((#78,#79,#80))REPRESENTATION_CONTEXT('NONE','WORKSPACE'));
#7=PROPERTY_DEFINITION_REPRESENTATION(#82,#83);
#8=GENERAL_PROPERTY_ASSOCIATION('','',#84,#82);
#9=PROPERTY_DEFINITION_REPRESENTATION(#85,#86);
#10=GENERAL_PROPERTY_ASSOCIATION('','',#87,#85);
#11=PROPERTY_DEFINITION_REPRESENTATION(#88,#89);
#12=GENERAL_PROPERTY_ASSOCIATION('','',#90,#88);
#13=PROPERTY_DEFINITION_REPRESENTATION(#91,#92);
#14=GENERAL_PROPERTY_ASSOCIATION('','',#93,#91);
#15=PROPERTY_DEFINITION_REPRESENTATION(#94,#95);
#16=GENERAL_PROPERTY_ASSOCIATION('','',#96,#94);
#17=PROPERTY_DEFINITION_REPRESENTATION(#97,#98);
#18=GENERAL_PROPERTY_ASSOCIATION('','',#99,#97);
#19=PROPERTY_DEFINITION_REPRESENTATION(#100,#101);
#20=GENERAL_PROPERTY_ASSOCIATION('','',#102,#100);
#21=PROPERTY_DEFINITION_REPRESENTATION(#103,#104);
#22=GENERAL_PROPERTY_ASSOCIATION('','',#105,#103);
#23=PROPERTY_DEFINITION_REPRESENTATION(#106,#107);
#24=GENERAL_PROPERTY_ASSOCIATION('','',#108,#106);
#25=PROPERTY_DEFINITION_REPRESENTATION(#109,#110);
#26=GENERAL_PROPERTY_ASSOCIATION('','',#111,#109);
#27=PROPERTY_DEFINITION_REPRESENTATION(#112,#113);
#28=GENERAL_PROPERTY_ASSOCIATION('','',#114,#112);
#29=PROPERTY_DEFINITION_REPRESENTATION(#115,#116);
#30=GENERAL_PROPERTY_ASSOCIATION('','',#117,#115);
#31=PROPERTY_DEFINITION_REPRESENTATION(#118,#119);
#32=GENERAL_PROPERTY_ASSOCIATION('','',#120,#118);
#33=PROPERTY_DEFINITION_REPRESENTATION(#121,#122);
#34=GENERAL_PROPERTY_ASSOCIATION('','',#123,#121);
#35=PROPERTY_DEFINITION_REPRESENTATION(#124,#125);
#36=GENERAL_PROPERTY_ASSOCIATION('','',#126,#124);
#37=PROPERTY_DEFINITION_REPRESENTATION(#127,#128);
#38=GENERAL_PROPERTY_ASSOCIATION('','',#129,#127);
#39=PROPERTY_DEFINITION_REPRESENTATION(#130,#131);
#40=GENERAL_PROPERTY_ASSOCIATION('','',#132,#130);
#41=PROPERTY_DEFINITION_REPRESENTATION(#133,#134);
#42=GENERAL_PROPERTY_ASSOCIATION('','',#135,#133);
#43=PROPERTY_DEFINITION_REPRESENTATION(#136,#137);
#44=GENERAL_PROPERTY_ASSOCIATION('','',#138,#136);
#45=PROPERTY_DEFINITION_REPRESENTATION(#139,#140);
#46=GENERAL_PROPERTY_ASSOCIATION('','',#141,#139);
#47=PROPERTY_DEFINITION_REPRESENTATION(#142,#143);
#48=GENERAL_PROPERTY_ASSOCIATION('','',#144,#142);
#49=PROPERTY_DEFINITION_REPRESENTATION(#145,#146);
#50=GENERAL_PROPERTY_ASSOCIATION('','',#147,#145);
#51=PROPERTY_DEFINITION_REPRESENTATION(#148,#149);
#52=GENERAL_PROPERTY_ASSOCIATION('','',#150,#148);
#53=PROPERTY_DEFINITION_REPRESENTATION(#151,#152);
#54=GENERAL_PROPERTY_ASSOCIATION('','',#153,#151);
#58=STYLED_ITEM('',(#154),#155);
#59=STYLED_ITEM('',(#156),#157);
#60=STYLED_ITEM('',(#158),#159);
#61=STYLED_ITEM('',(#160),#161);
#62=STYLED_ITEM('',(#162),#163);
#63=STYLED_ITEM('',(#164),#165);
#64=STYLED_ITEM('',(#166),#167);
#65=STYLED_ITEM('',(#168),#169);
#66=STYLED_ITEM('',(#170),#171);
#67=STYLED_ITEM('',(#172),#173);
#68=STYLED_ITEM('',(#174),#175);
#69=APPLICATION_CONTEXT(' ');
#70=PRODUCT_CATEGORY('part','NONE');
#71=PRODUCT_RELATED_PRODUCT_CATEGORY('detail',' ',(#176));
#72=PRODUCT_DEFINITION_SHAPE('NONE','NONE',#177);
#73=ADVANCED_BREP_SHAPE_REPRESENTATION('Douille D16',(#175,#178),#6);
#76=UNCERTAINTY_MEASURE_WITH_UNIT(LENGTH_MEASURE(0.001),#78,'','');
#78= (CONVERSION_BASED_UNIT('MILLIMETRE',#181)LENGTH_UNIT()NAMED_UNIT(#184));
#79= (NAMED_UNIT(#186)PLANE_ANGLE_UNIT()SI_UNIT($,.RADIAN.));
#80= (NAMED_UNIT(#186)SOLID_ANGLE_UNIT()SI_UNIT($,.STERADIAN.));
#82=PROPERTY_DEFINITION('PdmObjectId','',#177);
#83=REPRESENTATION('',(#192),#6);
#84=GENERAL_PROPERTY('','PdmObjectId','');
#85=PROPERTY_DEFINITION('Type de Production','',#177);
#86=REPRESENTATION('',(#193),#6);
#87=GENERAL_PROPERTY('','Type de Production','');
#88=PROPERTY_DEFINITION('Nom','',#177);
#89=REPRESENTATION('',(#194),#6);
#90=GENERAL_PROPERTY('','Nom','');
#91=PROPERTY_DEFINITION('Type de brut','',#177);
#92=REPRESENTATION('',(#195),#6);
#93=GENERAL_PROPERTY('','Type de brut','');
#94=PROPERTY_DEFINITION('Dimensions du brut','',#177);
#95=REPRESENTATION('',(#196),#6);
#96=GENERAL_PROPERTY('','Dimensions du brut','');
#97=PROPERTY_DEFINITION('Nom du brut','',#177);
#98=REPRESENTATION('',(#197),#6);
#99=GENERAL_PROPERTY('','Nom du brut','');
#100=PROPERTY_DEFINITION('D\X2\00E9\X0\signation du brut','',#177);
#101=REPRESENTATION('',(#198),#6);
#102=GENERAL_PROPERTY('','D\X2\00E9\X0\signation du brut','');
#103=PROPERTY_DEFINITION('R\X2\00E9\X0\f\X2\00E9\X0\rence du brut','',#177);
#104=REPRESENTATION('',(#199),#6);
#105=GENERAL_PROPERTY('','R\X2\00E9\X0\f\X2\00E9\X0\rence du brut','');
#106=PROPERTY_DEFINITION('R\X2\00E9\X0\vision majeure du brut','',#177);
#107=REPRESENTATION('',(#200),#6);
#108=GENERAL_PROPERTY('','R\X2\00E9\X0\vision majeure du brut','');
#109=PROPERTY_DEFINITION('D\X2\00E9\X0\signation de la r\X2\00E8\X0\gle de mise \X2\00E0\X0\ plat','',#177);
#110=REPRESENTATION('',(#201),#6);
#111=GENERAL_PROPERTY('','D\X2\00E9\X0\signation de la r\X2\00E8\X0\gle de mise \X2\00E0\X0\ plat','');
#112=PROPERTY_DEFINITION('R\X2\00E9\X0\f\X2\00E9\X0\rence de la r\X2\00E8\X0\gle de mise \X2\00E0\X0\ plat','',#177);
#113=REPRESENTATION('',(#202),#6);
#114=GENERAL_PROPERTY('','R\X2\00E9\X0\f\X2\00E9\X0\rence de la r\X2\00E8\X0\gle de mise \X2\00E0\X0\ plat','');
#115=PROPERTY_DEFINITION('Outil de pliage','',#177);
#116=REPRESENTATION('',(#203),#6);
#117=GENERAL_PROPERTY('','Outil de pliage','');
#118=PROPERTY_DEFINITION('D\X2\00E9\X0\signation du mat\X2\00E9\X0\riau','',#177);
#119=REPRESENTATION('',(#204),#6);
#120=GENERAL_PROPERTY('','D\X2\00E9\X0\signation du mat\X2\00E9\X0\riau','');
#121=PROPERTY_DEFINITION('Nom du mat\X2\00E9\X0\riau','',#177);
#122=REPRESENTATION('',(#205),#6);
#123=GENERAL_PROPERTY('','Nom du mat\X2\00E9\X0\riau','');
#124=PROPERTY_DEFINITION('BrutFinal','',#177);
#125=REPRESENTATION('',(#206),#6);
#126=GENERAL_PROPERTY('','BrutFinal','');
#127=PROPERTY_DEFINITION('BrutCylindrique','',#177);
#128=REPRESENTATION('',(#207),#6);
#129=GENERAL_PROPERTY('','BrutCylindrique','');
#130=PROPERTY_DEFINITION('Diam\X2\00E8\X0\treCylindreFormat\X2\00E9\X0\','',#177);
#131=REPRESENTATION('',(#208),#6);
#132=GENERAL_PROPERTY('','Diam\X2\00E8\X0\treCylindreFormat\X2\00E9\X0\','');
#133=PROPERTY_DEFINITION('LongueurCylindreFormat\X2\00E9\X0\','',#177);
#134=REPRESENTATION('',(#209),#6);
#135=GENERAL_PROPERTY('','LongueurCylindreFormat\X2\00E9\X0\','');
#136=PROPERTY_DEFINITION('BrutRectangulaire','',#177);
#137=REPRESENTATION('',(#210),#6);
#138=GENERAL_PROPERTY('','BrutRectangulaire','');
#139=PROPERTY_DEFINITION('TailleXBoiteFormat\X2\00E9\X0\','',#177);
#140=REPRESENTATION('',(#211),#6);
#141=GENERAL_PROPERTY('','TailleXBoiteFormat\X2\00E9\X0\','');
#142=PROPERTY_DEFINITION('TailleYBoiteFormat\X2\00E9\X0\','',#177);
#143=REPRESENTATION('',(#212),#6);
#144=GENERAL_PROPERTY('','TailleYBoiteFormat\X2\00E9\X0\','');
#145=PROPERTY_DEFINITION('TailleZBoiteFormat\X2\00E9\X0\','',#177);
#146=REPRESENTATION('',(#213),#6);
#147=GENERAL_PROPERTY('','TailleZBoiteFormat\X2\00E9\X0\','');
#148=PROPERTY_DEFINITION('CreationDate','',#177);
#149=REPRESENTATION('',(#214),#6);
#150=GENERAL_PROPERTY('','CreationDate','');
#151=PROPERTY_DEFINITION('Minor Revision','',#177);
#152=REPRESENTATION('',(#215),#6);
#153=GENERAL_PROPERTY('','Minor Revision','');
#154=PRESENTATION_STYLE_ASSIGNMENT((#216));
#155=ADVANCED_FACE('',(#217,#218),#219,.F.);
#156=PRESENTATION_STYLE_ASSIGNMENT((#220));
#157=ADVANCED_FACE('',(#221,#222),#223,.T.);
#158=PRESENTATION_STYLE_ASSIGNMENT((#224));
#159=ADVANCED_FACE('',(#225,#226),#227,.F.);
#160=PRESENTATION_STYLE_ASSIGNMENT((#228));
#161=ADVANCED_FACE('',(#229,#230),#231,.F.);
#162=PRESENTATION_STYLE_ASSIGNMENT((#232));
#163=ADVANCED_FACE('',(#233,#234),#235,.F.);
#164=PRESENTATION_STYLE_ASSIGNMENT((#236));
#165=ADVANCED_FACE('',(#237,#238),#239,.F.);
#166=PRESENTATION_STYLE_ASSIGNMENT((#240));
#167=ADVANCED_FACE('',(#241,#242),#243,.T.);
#168=PRESENTATION_STYLE_ASSIGNMENT((#244));
#169=ADVANCED_FACE('',(#245,#246),#247,.T.);
#170=PRESENTATION_STYLE_ASSIGNMENT((#248));
#171=ADVANCED_FACE('',(#249,#250),#251,.F.);
#172=PRESENTATION_STYLE_ASSIGNMENT((#252));
#173=ADVANCED_FACE('',(#253,#254),#255,.T.);
#174=PRESENTATION_STYLE_ASSIGNMENT((#256));
#175=MANIFOLD_SOLID_BREP('Douille D16',#257);
#176=PRODUCT('Douille D16','FAA05.02','Douille D16',(#258));
#177=PRODUCT_DEFINITION('','NONE',#259,#2);
#178=AXIS2_PLACEMENT_3D('',#260,#261,#262);
#181=LENGTH_MEASURE_WITH_UNIT(LENGTH_MEASURE(1.0),#263);
#184=DIMENSIONAL_EXPONENTS(1.0,0.0,0.0,0.0,0.0,0.0,0.0);
#186=DIMENSIONAL_EXPONENTS(0.0,0.0,0.0,0.0,0.0,0.0,0.0);
#192=DESCRIPTIVE_REPRESENTATION_ITEM('','19_3a030e2b-66a1-4b20-ae0d-aea08016a346&2_5_14_2');
#193=DESCRIPTIVE_REPRESENTATION_ITEM('','Usinage');
#194=DESCRIPTIVE_REPRESENTATION_ITEM('','Douille D16');
#195=DESCRIPTIVE_REPRESENTATION_ITEM('','Non classifi\X2\00E9\X0\');
#196=DESCRIPTIVE_REPRESENTATION_ITEM('','');
#197=DESCRIPTIVE_REPRESENTATION_ITEM('','-');
#198=DESCRIPTIVE_REPRESENTATION_ITEM('','-');
#199=DESCRIPTIVE_REPRESENTATION_ITEM('','');
#200=DESCRIPTIVE_REPRESENTATION_ITEM('','');
#201=DESCRIPTIVE_REPRESENTATION_ITEM('','Taleau pliage');
#202=DESCRIPTIVE_REPRESENTATION_ITEM('','');
#203=DESCRIPTIVE_REPRESENTATION_ITEM('','<non sp\X2\00E9\X0\cifi\X2\00E9\X0\>');
#204=DESCRIPTIVE_REPRESENTATION_ITEM('','Acier E470 EN 10297');
#205=DESCRIPTIVE_REPRESENTATION_ITEM('','Acier E470 EN 10297');
#206=DESCRIPTIVE_REPRESENTATION_ITEM('','-');
#207=DESCRIPTIVE_REPRESENTATION_ITEM('','\X2\00D8\X0\ 50,00 \X2\00D7\X0\ 45,00');
#208=DESCRIPTIVE_REPRESENTATION_ITEM('','50,00');
#209=DESCRIPTIVE_REPRESENTATION_ITEM('','45,00');
#210=DESCRIPTIVE_REPRESENTATION_ITEM('','45,00 \X2\00D7\X0\ 45,00 \X2\00D7\X0\ 20,00');
#211=DESCRIPTIVE_REPRESENTATION_ITEM('','45,00');
#212=DESCRIPTIVE_REPRESENTATION_ITEM('','45,00');
#213=DESCRIPTIVE_REPRESENTATION_ITEM('','20,00');
#214=DESCRIPTIVE_REPRESENTATION_ITEM('','16/09/2022 07:20:36');
#215=DESCRIPTIVE_REPRESENTATION_ITEM('','0');
#216=SURFACE_STYLE_USAGE(.BOTH.,#264);
#217=FACE_OUTER_BOUND('',#265,.T.);
#218=FACE_BOUND('',#266,.T.);
#219=PLANE('',#267);
#220=SURFACE_STYLE_USAGE(.BOTH.,#268);
#221=FACE_OUTER_BOUND('',#269,.T.);
#222=FACE_OUTER_BOUND('',#270,.T.);
#223=CYLINDRICAL_SURFACE('',#271,17.5);
#224=SURFACE_STYLE_USAGE(.BOTH.,#272);
#225=FACE_BOUND('',#273,.T.);
#226=FACE_OUTER_BOUND('',#274,.T.);
#227=PLANE('',#275);
#228=SURFACE_STYLE_USAGE(.BOTH.,#276);
#229=FACE_OUTER_BOUND('',#277,.T.);
#230=FACE_BOUND('',#278,.T.);
#231=PLANE('',#279);
#232=SURFACE_STYLE_USAGE(.BOTH.,#280);
#233=FACE_OUTER_BOUND('',#281,.T.);
#234=FACE_OUTER_BOUND('',#282,.T.);
#235=CYLINDRICAL_SURFACE('',#283,8.1);
#236=SURFACE_STYLE_USAGE(.BOTH.,#284);
#237=FACE_BOUND('',#285,.T.);
#238=FACE_OUTER_BOUND('',#286,.T.);
#239=CONICAL_SURFACE('',#287,9.1,0.785398163397449);
#240=SURFACE_STYLE_USAGE(.BOTH.,#288);
#241=FACE_BOUND('',#289,.T.);
#242=FACE_OUTER_BOUND('',#290,.T.);
#243=CONICAL_SURFACE('',#291,17.5,0.785398163397449);
#244=SURFACE_STYLE_USAGE(.BOTH.,#292);
#245=FACE_OUTER_BOUND('',#293,.T.);
#246=FACE_BOUND('',#294,.T.);
#247=CONICAL_SURFACE('',#295,19.0,0.785398163397449);
#248=SURFACE_STYLE_USAGE(.BOTH.,#296);
#249=FACE_OUTER_BOUND('',#297,.T.);
#250=FACE_BOUND('',#298,.T.);
#251=CONICAL_SURFACE('',#299,8.1,0.785398163397449);
#252=SURFACE_STYLE_USAGE(.BOTH.,#300);
#253=FACE_OUTER_BOUND('',#301,.T.);
#254=FACE_OUTER_BOUND('',#302,.T.);
#255=CYLINDRICAL_SURFACE('',#303,20.0);
#256=SURFACE_STYLE_USAGE(.BOTH.,#304);
#257=CLOSED_SHELL('',(#155,#157,#159,#161,#163,#165,#167,#169,#171,#173));
#258=PRODUCT_CONTEXT('',#69,'mechanical');
#259=PRODUCT_DEFINITION_FORMATION_WITH_SPECIFIED_SOURCE('B','NONE',#176,.NOT_KNOWN.);
#260=CARTESIAN_POINT('',(0.0,0.0,0.0));
#261=DIRECTION('',(0.0,0.0,1.0));
#262=DIRECTION('',(1.0,0.0,0.0));
#263= (NAMED_UNIT(#184)LENGTH_UNIT()SI_UNIT(.MILLI.,.METRE.));
#264=SURFACE_SIDE_STYLE('',(#306));
#265=EDGE_LOOP('',(#307));
#266=EDGE_LOOP('',(#308));
#267=AXIS2_PLACEMENT_3D('',#309,#310,#311);
#268=SURFACE_SIDE_STYLE('',(#312));
#269=EDGE_LOOP('',(#313));
#270=EDGE_LOOP('',(#314));
#271=AXIS2_PLACEMENT_3D('',#315,#316,#317);
#272=SURFACE_SIDE_STYLE('',(#318));
#273=EDGE_LOOP('',(#319));
#274=EDGE_LOOP('',(#320));
#275=AXIS2_PLACEMENT_3D('',#321,#322,#323);
#276=SURFACE_SIDE_STYLE('',(#324));
#277=EDGE_LOOP('',(#325));
#278=EDGE_LOOP('',(#326));
#279=AXIS2_PLACEMENT_3D('',#327,#328,#329);
#280=SURFACE_SIDE_STYLE('',(#330));
#281=EDGE_LOOP('',(#331));
#282=EDGE_LOOP('',(#332));
#283=AXIS2_PLACEMENT_3D('',#333,#334,#335);
#284=SURFACE_SIDE_STYLE('',(#336));
#285=EDGE_LOOP('',(#337));
#286=EDGE_LOOP('',(#338));
#287=AXIS2_PLACEMENT_3D('',#339,#340,#341);
#288=SURFACE_SIDE_STYLE('',(#342));
#289=EDGE_LOOP('',(#343));
#290=EDGE_LOOP('',(#344));
#291=AXIS2_PLACEMENT_3D('',#345,#346,#347);
#292=SURFACE_SIDE_STYLE('',(#348));
#293=EDGE_LOOP('',(#349));
#294=EDGE_LOOP('',(#350));
#295=AXIS2_PLACEMENT_3D('',#351,#352,#353);
#296=SURFACE_SIDE_STYLE('',(#354));
#297=EDGE_LOOP('',(#355));
#298=EDGE_LOOP('',(#356));
#299=AXIS2_PLACEMENT_3D('',#357,#358,#359);
#300=SURFACE_SIDE_STYLE('',(#360));
#301=EDGE_LOOP('',(#361));
#302=EDGE_LOOP('',(#362));
#303=AXIS2_PLACEMENT_3D('',#363,#364,#365);
#304=SURFACE_SIDE_STYLE('',(#366));
#306=SURFACE_STYLE_FILL_AREA(#367);
#307=ORIENTED_EDGE('',*,*,#368,.F.);
#308=ORIENTED_EDGE('',*,*,#369,.T.);
#309=CARTESIAN_POINT('',(5.0,18.75,0.0));
#310=DIRECTION('',(-1.0,0.0,0.0));
#311=DIRECTION('',(0.0,0.0,1.0));
#312=SURFACE_STYLE_FILL_AREA(#370);
#313=ORIENTED_EDGE('',*,*,#371,.T.);
#314=ORIENTED_EDGE('',*,*,#369,.F.);
#315=CARTESIAN_POINT('',(0.0,0.0,0.0));
#316=DIRECTION('',(-1.0,0.0,0.0));
#317=DIRECTION('',(0.0,0.0,1.0));
#318=SURFACE_STYLE_FILL_AREA(#372);
#319=ORIENTED_EDGE('',*,*,#373,.T.);
#320=ORIENTED_EDGE('',*,*,#374,.T.);
#321=CARTESIAN_POINT('',(15.0,12.8,0.0));
#322=DIRECTION('',(-1.0,0.0,0.0));
#323=DIRECTION('',(0.0,0.0,1.0));
#324=SURFACE_STYLE_FILL_AREA(#375);
#325=ORIENTED_EDGE('',*,*,#376,.T.);
#326=ORIENTED_EDGE('',*,*,#377,.T.);
#327=CARTESIAN_POINT('',(0.0,14.05,0.0));
#328=DIRECTION('',(1.0,0.0,0.0));
#329=DIRECTION('',(0.0,0.0,-1.0));
#330=SURFACE_STYLE_FILL_AREA(#378);
#331=ORIENTED_EDGE('',*,*,#379,.T.);
#332=ORIENTED_EDGE('',*,*,#380,.T.);
#333=CARTESIAN_POINT('',(0.0,0.0,0.0));
#334=DIRECTION('',(-1.0,0.0,0.0));
#335=DIRECTION('',(0.0,0.0,1.0));
#336=SURFACE_STYLE_FILL_AREA(#381);
#337=ORIENTED_EDGE('',*,*,#379,.F.);
#338=ORIENTED_EDGE('',*,*,#373,.F.);
#339=CARTESIAN_POINT('',(15.0,0.0,0.0));
#340=DIRECTION('',(1.0,-0.0,0.0));
#341=DIRECTION('',(0.0,0.0,-1.0));
#342=SURFACE_STYLE_FILL_AREA(#382);
#343=ORIENTED_EDGE('',*,*,#374,.F.);
#344=ORIENTED_EDGE('',*,*,#371,.F.);
#345=CARTESIAN_POINT('',(14.0,0.0,0.0));
#346=DIRECTION('',(-1.0,0.0,-0.0));
#347=DIRECTION('',(0.0,0.0,1.0));
#348=SURFACE_STYLE_FILL_AREA(#383);
#349=ORIENTED_EDGE('',*,*,#384,.F.);
#350=ORIENTED_EDGE('',*,*,#376,.F.);
#351=CARTESIAN_POINT('',(0.0,0.0,0.0));
#352=DIRECTION('',(1.0,-0.0,0.0));
#353=DIRECTION('',(0.0,0.0,-1.0));
#354=SURFACE_STYLE_FILL_AREA(#385);
#355=ORIENTED_EDGE('',*,*,#377,.F.);
#356=ORIENTED_EDGE('',*,*,#380,.F.);
#357=CARTESIAN_POINT('',(1.0,0.0,0.0));
#358=DIRECTION('',(-1.0,0.0,-0.0));
#359=DIRECTION('',(0.0,0.0,1.0));
#360=SURFACE_STYLE_FILL_AREA(#386);
#361=ORIENTED_EDGE('',*,*,#384,.T.);
#362=ORIENTED_EDGE('',*,*,#368,.T.);
#363=CARTESIAN_POINT('',(0.0,0.0,0.0));
#364=DIRECTION('',(-1.0,0.0,0.0));
#365=DIRECTION('',(0.0,0.0,1.0));
#366=SURFACE_STYLE_FILL_AREA(#387);
#367=FILL_AREA_STYLE('',(#388));
#368=EDGE_CURVE('',#389,#389,#390,.T.);
#369=EDGE_CURVE('',#391,#391,#392,.T.);
#370=FILL_AREA_STYLE('',(#393));
#371=EDGE_CURVE('',#394,#394,#395,.T.);
#372=FILL_AREA_STYLE('',(#396));
#373=EDGE_CURVE('',#397,#397,#398,.T.);
#374=EDGE_CURVE('',#399,#399,#400,.F.);
#375=FILL_AREA_STYLE('',(#401));
#376=EDGE_CURVE('',#402,#402,#403,.F.);
#377=EDGE_CURVE('',#404,#404,#405,.T.);
#378=FILL_AREA_STYLE('',(#406));
#379=EDGE_CURVE('',#407,#407,#408,.F.);
#380=EDGE_CURVE('',#409,#409,#410,.F.);
#381=FILL_AREA_STYLE('',(#411));
#382=FILL_AREA_STYLE('',(#412));
#383=FILL_AREA_STYLE('',(#413));
#384=EDGE_CURVE('',#414,#414,#415,.T.);
#385=FILL_AREA_STYLE('',(#416));
#386=FILL_AREA_STYLE('',(#417));
#387=FILL_AREA_STYLE('',(#418));
#388=FILL_AREA_STYLE_COLOUR('',#419);
#389=VERTEX_POINT('',#420);
#390=CIRCLE('',#421,20.0);
#391=VERTEX_POINT('',#422);
#392=CIRCLE('',#423,17.5);
#393=FILL_AREA_STYLE_COLOUR('',#424);
#394=VERTEX_POINT('',#425);
#395=CIRCLE('',#426,17.5);
#396=FILL_AREA_STYLE_COLOUR('',#427);
#397=VERTEX_POINT('',#428);
#398=CIRCLE('',#429,9.1);
#399=VERTEX_POINT('',#430);
#400=CIRCLE('',#431,16.5);
#401=FILL_AREA_STYLE_COLOUR('',#432);
#402=VERTEX_POINT('',#433);
#403=CIRCLE('',#434,19.0);
#404=VERTEX_POINT('',#435);
#405=CIRCLE('',#436,9.1);
#406=FILL_AREA_STYLE_COLOUR('',#437);
#407=VERTEX_POINT('',#438);
#408=CIRCLE('',#439,8.1);
#409=VERTEX_POINT('',#440);
#410=CIRCLE('',#441,8.1);
#411=FILL_AREA_STYLE_COLOUR('',#442);
#412=FILL_AREA_STYLE_COLOUR('',#443);
#413=FILL_AREA_STYLE_COLOUR('',#444);
#414=VERTEX_POINT('',#445);
#415=CIRCLE('',#446,20.0);
#416=FILL_AREA_STYLE_COLOUR('',#447);
#417=FILL_AREA_STYLE_COLOUR('',#448);
#418=FILL_AREA_STYLE_COLOUR('',#449);
#419=COLOUR_RGB('',0.752941191196442,0.752941191196442,0.752941191196442);
#420=CARTESIAN_POINT('',(5.0,0.0,20.0));
#421=AXIS2_PLACEMENT_3D('',#450,#451,#452);
#422=CARTESIAN_POINT('',(5.0,0.0,17.5));
#423=AXIS2_PLACEMENT_3D('',#453,#454,#455);
#424=COLOUR_RGB('',0.752941191196442,0.752941191196442,0.752941191196442);
#425=CARTESIAN_POINT('',(14.0,0.0,17.5));
#426=AXIS2_PLACEMENT_3D('',#456,#457,#458);
#427=COLOUR_RGB('',0.752941191196442,0.752941191196442,0.752941191196442);
#428=CARTESIAN_POINT('',(15.0,0.0,9.1));
#429=AXIS2_PLACEMENT_3D('',#459,#460,#461);
#430=CARTESIAN_POINT('',(15.0,-4.04133443718627E-15,16.5));
#431=AXIS2_PLACEMENT_3D('',#462,#463,#464);
#432=COLOUR_RGB('',0.752941191196442,0.752941191196442,0.752941191196442);
#433=CARTESIAN_POINT('',(0.0,-4.65365783675994E-15,-19.0));
#434=AXIS2_PLACEMENT_3D('',#465,#466,#467);
#435=CARTESIAN_POINT('',(0.0,0.0,-9.1));
#436=AXIS2_PLACEMENT_3D('',#468,#469,#470);
#437=COLOUR_RGB('',0.752941191196442,0.752941191196442,0.752941191196442);
#438=CARTESIAN_POINT('',(14.0,-1.98392781461871E-15,8.1));
#439=AXIS2_PLACEMENT_3D('',#471,#472,#473);
#440=CARTESIAN_POINT('',(1.0,-1.98392781461871E-15,-8.1));
#441=AXIS2_PLACEMENT_3D('',#474,#475,#476);
#442=COLOUR_RGB('',0.752941191196442,0.752941191196442,0.752941191196442);
#443=COLOUR_RGB('',0.752941191196442,0.752941191196442,0.752941191196442);
#444=COLOUR_RGB('',0.752941191196442,0.752941191196442,0.752941191196442);
#445=CARTESIAN_POINT('',(1.0,0.0,-20.0));
#446=AXIS2_PLACEMENT_3D('',#477,#478,#479);
#447=COLOUR_RGB('',0.752941191196442,0.752941191196442,0.752941191196442);
#448=COLOUR_RGB('',0.752941191196442,0.752941191196442,0.752941191196442);
#449=COLOUR_RGB('',0.752941191196442,0.752941191196442,0.752941191196442);
#450=CARTESIAN_POINT('',(5.0,0.0,0.0));
#451=DIRECTION('',(-1.0,0.0,0.0));
#452=DIRECTION('',(0.0,0.0,1.0));
#453=CARTESIAN_POINT('',(5.0,0.0,0.0));
#454=DIRECTION('',(-1.0,0.0,0.0));
#455=DIRECTION('',(0.0,0.0,1.0));
#456=CARTESIAN_POINT('',(14.0,0.0,0.0));
#457=DIRECTION('',(-1.0,0.0,0.0));
#458=DIRECTION('',(0.0,0.0,1.0));
#459=CARTESIAN_POINT('',(15.0,0.0,0.0));
#460=DIRECTION('',(-1.0,0.0,0.0));
#461=DIRECTION('',(0.0,0.0,1.0));
#462=CARTESIAN_POINT('',(15.0,0.0,0.0));
#463=DIRECTION('',(-1.0,0.0,0.0));
#464=DIRECTION('',(0.0,0.0,1.0));
#465=CARTESIAN_POINT('',(0.0,0.0,0.0));
#466=DIRECTION('',(1.0,0.0,0.0));
#467=DIRECTION('',(0.0,0.0,-1.0));
#468=CARTESIAN_POINT('',(0.0,0.0,0.0));
#469=DIRECTION('',(1.0,0.0,0.0));
#470=DIRECTION('',(0.0,0.0,-1.0));
#471=CARTESIAN_POINT('',(14.0,0.0,0.0));
#472=DIRECTION('',(-1.0,0.0,0.0));
#473=DIRECTION('',(0.0,0.0,1.0));
#474=CARTESIAN_POINT('',(1.0,0.0,0.0));
#475=DIRECTION('',(1.0,0.0,0.0));
#476=DIRECTION('',(0.0,0.0,-1.0));
#477=CARTESIAN_POINT('',(1.0,0.0,0.0));
#478=DIRECTION('',(1.0,0.0,0.0));
#479=DIRECTION('',(0.0,0.0,-1.0));
ENDSEC;
END-ISO-10303-21;
