ISO-10303-21;
HEADER;
FILE_DESCRIPTION (( 'STEP AP214' ),
    '1' );
FILE_NAME ('bouchon.STEP',
    '2024-03-26T20:49:06',
    ( '' ),
    ( '' ),
    'SwSTEP 2.0',
    'SolidWorks 2020',
    '' );
FILE_SCHEMA (( 'AUTOMOTIVE_DESIGN' ));
ENDSEC;

DATA;
#1 = VERTEX_POINT ( 'NONE', #134 ) ;
#2 = CARTESIAN_POINT ( 'NONE',  ( 0.000000000000000000, 0.000000000000000000, 0.000000000000000000 ) ) ;
#3 = CARTESIAN_POINT ( 'NONE',  ( 20.09811626851984556, -4.449711705723729871, 40.19623253703967691 ) ) ;
#4 = AXIS2_PLACEMENT_3D ( 'NONE', #89, #135, #28 ) ;
#5 = CARTESIAN_POINT ( 'NONE',  ( -19.99999999999999645, 7.138549101582838371E-14, 40.00000000000001421 ) ) ;
#6 = CARTESIAN_POINT ( 'NONE',  ( -18.00000000000001066, 54.99394978242949605, 4.408728476930474011E-15 ) ) ;
#7 = ADVANCED_FACE ( 'NONE', ( #212 ), #140, .F. ) ;
#8 = CARTESIAN_POINT ( 'NONE',  ( -12.68882892666295703, 31.87702905419150667, 3.107866745993227103E-15 ) ) ;
#9 = DIRECTION ( 'NONE',  ( -0.000000000000000000, -1.000000000000000000, -0.000000000000000000 ) ) ;
#10 = CARTESIAN_POINT ( 'NONE',  ( -15.80536076038438864, -8.267448115426130784, -31.61072152076876662 ) ) ;
#11 = DIRECTION ( 'NONE',  ( 0.000000000000000000, 0.000000000000000000, -1.000000000000000000 ) ) ;
#12 = AXIS2_PLACEMENT_3D ( 'NONE', #42, #201, #62 ) ;
#13 = CARTESIAN_POINT ( 'NONE',  ( -20.09811626851984556, -4.449711705723729871, -40.19623253703967691 ) ) ;
#14 = VERTEX_POINT ( 'NONE', #120 ) ;
#15 = CARTESIAN_POINT ( 'NONE',  ( 0.000000000000000000, 0.000000000000000000, 0.000000000000000000 ) ) ;
#16 = ORIENTED_EDGE ( 'NONE', *, *, #138, .T. ) ;
#17 = MECHANICAL_DESIGN_GEOMETRIC_PRESENTATION_REPRESENTATION (  '', ( #137 ), #204 ) ;
#18 =( NAMED_UNIT ( * ) PLANE_ANGLE_UNIT ( ) SI_UNIT ( $, .RADIAN. ) );
#19 = CARTESIAN_POINT ( 'NONE',  ( 18.00000000000001066, 54.99394978242949605, -2.204364238465237006E-15 ) ) ;
#20 = CARTESIAN_POINT ( 'NONE',  ( -13.22603914144890958, 23.97578254746925452, 0.000000000000000000 ) ) ;
#21 = CARTESIAN_POINT ( 'NONE',  ( 8.607919692157077307, -6.074771420176111825, 17.21583938431414751 ) ) ;
#22 = VECTOR ( 'NONE', #249, 1000.000000000000000 ) ;
#23 = FACE_OUTER_BOUND ( 'NONE', #77, .T. ) ;
#24 = CARTESIAN_POINT ( 'NONE',  ( 8.607919692157075531, -6.074771420176111825, -1.054166129831763220E-15 ) ) ;
#25 = DIRECTION ( 'NONE',  ( -0.000000000000000000, -1.000000000000000000, -0.000000000000000000 ) ) ;
#26 = ADVANCED_BREP_SHAPE_REPRESENTATION ( 'bouchon', ( #36, #12 ), #151 ) ;
#27 = CARTESIAN_POINT ( 'NONE',  ( 15.80536076038438864, -8.267448115426130784, -1.935598446457391749E-15 ) ) ;
#28 = DIRECTION ( 'NONE',  ( 0.000000000000000000, 0.000000000000000000, -1.000000000000000000 ) ) ;
#29 = CARTESIAN_POINT ( 'NONE',  ( 0.000000000000000000, 54.99394978242949605, 0.000000000000000000 ) ) ;
#30 = ORIENTED_EDGE ( 'NONE', *, *, #185, .T. ) ;
#31 = CARTESIAN_POINT ( 'NONE',  ( -8.607919692157075531, -6.074771420176111825, 0.000000000000000000 ) ) ;
#32 = CARTESIAN_POINT ( 'NONE',  ( 8.607919692157075531, -6.074771420176111825, -1.054166129831763220E-15 ) ) ;
#33 = FACE_BOUND ( 'NONE', #74, .T. ) ;
#34 = PLANE ( 'NONE',  #129 ) ;
#35 = EDGE_CURVE ( 'NONE', #14, #56, #93, .T. ) ;
#36 = MANIFOLD_SOLID_BREP ( 'Revolve1', #253 ) ;
#37 =( NAMED_UNIT ( * ) SI_UNIT ( $, .STERADIAN. ) SOLID_ANGLE_UNIT ( ) );
#38 = VERTEX_POINT ( 'NONE', #205 ) ;
#39 = PRODUCT ( 'bouchon', 'bouchon', '', ( #146 ) ) ;
#40 = CARTESIAN_POINT ( 'NONE',  ( 0.000000000000000000, 0.000000000000000000, 0.000000000000000000 ) ) ;
#41 = ADVANCED_FACE ( 'NONE', ( #23 ), #144, .T. ) ;
#42 = CARTESIAN_POINT ( 'NONE',  ( 0.000000000000000000, 0.000000000000000000, 0.000000000000000000 ) ) ;
#43 = EDGE_CURVE ( 'NONE', #117, #1, #78, .T. ) ;
#44 = CARTESIAN_POINT ( 'NONE',  ( 0.000000000000000000, -40.11565358341767507, 0.000000000000000000 ) ) ;
#45 = FACE_OUTER_BOUND ( 'NONE', #259, .T. ) ;
#46 = DIRECTION ( 'NONE',  ( -0.000000000000000000, -1.000000000000000000, -0.000000000000000000 ) ) ;
#47 = CARTESIAN_POINT ( 'NONE',  ( 18.00000000000000711, 54.99394978242948895, -36.00000000000001421 ) ) ;
#48 = ORIENTED_EDGE ( 'NONE', *, *, #54, .T. ) ;
#49 = CARTESIAN_POINT ( 'NONE',  ( 15.80536076038438331, -8.267448115426130784, -31.61072152076876662 ) ) ;
#50 = ORIENTED_EDGE ( 'NONE', *, *, #145, .T. ) ;
#51 = CARTESIAN_POINT ( 'NONE',  ( 12.68882892666295348, 31.87702905419151023, -25.37765785332590696 ) ) ;
#52 = ORIENTED_EDGE ( 'NONE', *, *, #242, .F. ) ;
#53 = PRODUCT_DEFINITION_FORMATION_WITH_SPECIFIED_SOURCE ( 'ANY', '', #39, .NOT_KNOWN. ) ;
#54 = EDGE_CURVE ( 'NONE', #1, #117, #166, .T. ) ;
#55 = AXIS2_PLACEMENT_3D ( 'NONE', #73, #91, #11 ) ;
#56 = VERTEX_POINT ( 'NONE', #152 ) ;
#57 = DIRECTION ( 'NONE',  ( 0.000000000000000000, -1.000000000000000000, -0.000000000000000000 ) ) ;
#58 = FILL_AREA_STYLE ('',( #141 ) ) ;
#59 = ADVANCED_FACE ( 'NONE', ( #45 ), #230, .F. ) ;
#60 = CARTESIAN_POINT ( 'NONE',  ( 18.00000000000001421, 54.99394978242948895, 36.00000000000001421 ) ) ;
#61 = PRODUCT_DEFINITION_SHAPE ( 'NONE', 'NONE',  #180 ) ;
#62 = DIRECTION ( 'NONE',  ( 1.000000000000000000, 0.000000000000000000, 0.000000000000000000 ) ) ;
#63 = CARTESIAN_POINT ( 'NONE',  ( 13.22603914144891313, 23.97578254746925452, 26.45207828289781204 ) ) ;
#64 = CARTESIAN_POINT ( 'NONE',  ( -15.80536076038438864, -8.267448115426130784, 3.871196892914783498E-15 ) ) ;
#65 = FILL_AREA_STYLE_COLOUR ( '', #70 ) ;
#66 = CIRCLE ( 'NONE', #105, 18.00000000000001066 ) ;
#67 = LINE ( 'NONE', #95, #22 ) ;
#68 = EDGE_CURVE ( 'NONE', #56, #236, #247, .T. ) ;
#69 = CARTESIAN_POINT ( 'NONE',  ( 0.000000000000000000, 0.000000000000000000, -18.00000000000001066 ) ) ;
#70 = COLOUR_RGB ( '',0.7921568627450980005, 0.8196078431372548767, 0.9333333333333333481 ) ;
#71 = CARTESIAN_POINT ( 'NONE',  ( -13.22603914144890958, 23.97578254746925452, 0.000000000000000000 ) ) ;
#72 = VECTOR ( 'NONE', #25, 1000.000000000000000 ) ;
#73 = CARTESIAN_POINT ( 'NONE',  ( 0.000000000000000000, 0.000000000000000000, 0.000000000000000000 ) ) ;
#74 = EDGE_LOOP ( 'NONE', ( #257, #48 ) ) ;
#75 = CARTESIAN_POINT ( 'NONE',  ( 20.09811626851984556, -4.449711705723729871, -2.461309375713417273E-15 ) ) ;
#76 = ORIENTED_EDGE ( 'NONE', *, *, #131, .T. ) ;
#77 = EDGE_LOOP ( 'NONE', ( #50, #191, #16, #172, #156 ) ) ;
#78 = CIRCLE ( 'NONE', #252, 18.00000000000001066 ) ;
#79 = CARTESIAN_POINT ( 'NONE',  ( -18.00000000000001066, 0.000000000000000000, 0.000000000000000000 ) ) ;
#80 = UNCERTAINTY_MEASURE_WITH_UNIT (LENGTH_MEASURE( 1.000000000000000082E-05 ), #221, 'distance_accuracy_value', 'NONE');
#81 = DIRECTION ( 'NONE',  ( 0.000000000000000000, 0.000000000000000000, -1.000000000000000000 ) ) ;
#82 = DIRECTION ( 'NONE',  ( -0.000000000000000000, -1.000000000000000000, -0.000000000000000000 ) ) ;
#83 = SURFACE_STYLE_USAGE ( .BOTH. , #103 ) ;
#84 = CARTESIAN_POINT ( 'NONE',  ( -20.09811626851984556, -4.449711705723729871, 4.922618751426834546E-15 ) ) ;
#85 = CIRCLE ( 'NONE', #171, 18.00000000000001066 ) ;
#86 = ADVANCED_FACE ( 'NONE', ( #209 ), #116, .T. ) ;
#87 =( NAMED_UNIT ( * ) PLANE_ANGLE_UNIT ( ) SI_UNIT ( $, .RADIAN. ) );
#88 = CARTESIAN_POINT ( 'NONE',  ( 15.80536076038438864, -8.267448115426130784, -1.935598446457391749E-15 ) ) ;
#89 = CARTESIAN_POINT ( 'NONE',  ( 0.000000000000000000, -40.11565358341767507, 0.000000000000000000 ) ) ;
#90 = PRESENTATION_LAYER_ASSIGNMENT (  '', '', ( #177 ) ) ;
#91 = DIRECTION ( 'NONE',  ( -0.000000000000000000, -1.000000000000000000, -0.000000000000000000 ) ) ;
#92 = UNCERTAINTY_MEASURE_WITH_UNIT (LENGTH_MEASURE( 1.000000000000000082E-05 ), #123, 'distance_accuracy_value', 'NONE');
#93 = B_SPLINE_CURVE_WITH_KNOTS ( 'NONE', 3,
 ( #102, #186, #200, #125, #181, #20, #246 ),
 .UNSPECIFIED., .F., .F.,
 ( 4, 1, 1, 1, 4 ),
 ( 0.000000000000000000, 0.1464712006525069610, 0.3030871340769660804, 0.3884400140117153510, 1.000000000000000000 ),
 .UNSPECIFIED. ) ;
#94 = CARTESIAN_POINT ( 'NONE',  ( -20.00000000000000711, 7.138549101582838371E-14, 0.000000000000000000 ) ) ;
#95 = CARTESIAN_POINT ( 'NONE',  ( 0.000000000000000000, -40.11565358341767507, -18.00000000000001066 ) ) ;
#96 = CARTESIAN_POINT ( 'NONE',  ( -18.00000000000000711, 54.99394978242948895, -36.00000000000001421 ) ) ;
#97 = EDGE_LOOP ( 'NONE', ( #143, #158, #194, #76, #101 ) ) ;
#98 = CARTESIAN_POINT ( 'NONE',  ( 13.22603914144890958, 23.97578254746925452, -1.619722649997301637E-15 ) ) ;
#99 = VERTEX_POINT ( 'NONE', #113 ) ;
#100 = MECHANICAL_DESIGN_GEOMETRIC_PRESENTATION_REPRESENTATION (  '', ( #177 ), #124 ) ;
#101 = ORIENTED_EDGE ( 'NONE', *, *, #54, .F. ) ;
#102 = CARTESIAN_POINT ( 'NONE',  ( -20.00000000000000711, 0.000000000000000000, 0.000000000000000000 ) ) ;
#103 = SURFACE_SIDE_STYLE ('',( #241 ) ) ;
#104 = CARTESIAN_POINT ( 'NONE',  ( -15.80536076038438154, -8.267448115426130784, 31.61072152076877728 ) ) ;
#105 = AXIS2_PLACEMENT_3D ( 'NONE', #29, #248, #168 ) ;
#106 = CARTESIAN_POINT ( 'NONE',  ( -8.607919692157071978, -6.074771420176111825, 17.21583938431415106 ) ) ;
#107 = PRESENTATION_STYLE_ASSIGNMENT (( #83 ) ) ;
#108 = CARTESIAN_POINT ( 'NONE',  ( 20.09811626851984556, -4.449711705723729871, -2.461309375713417273E-15 ) ) ;
#109 = CARTESIAN_POINT ( 'NONE',  ( 15.80536076038439219, -8.267448115426130784, 31.61072152076876662 ) ) ;
#110 = CARTESIAN_POINT ( 'NONE',  ( -20.00000000000000711, 7.138549101582838371E-14, -40.00000000000000711 ) ) ;
#111 = AXIS2_PLACEMENT_3D ( 'NONE', #40, #82, #115 ) ;
#112 = CARTESIAN_POINT ( 'NONE',  ( -8.607919692157075531, -6.074771420176111825, -17.21583938431414751 ) ) ;
#113 = CARTESIAN_POINT ( 'NONE',  ( 18.00000000000001066, 54.99394978242949605, -2.204364238465237006E-15 ) ) ;
#114 = ORIENTED_EDGE ( 'NONE', *, *, #176, .F. ) ;
#115 = DIRECTION ( 'NONE',  ( 0.000000000000000000, 0.000000000000000000, -1.000000000000000000 ) ) ;
#116 = CYLINDRICAL_SURFACE ( 'NONE', #4, 18.00000000000001066 ) ;
#117 = VERTEX_POINT ( 'NONE', #69 ) ;
#118 = ORIENTED_EDGE ( 'NONE', *, *, #242, .T. ) ;
#119 = SHAPE_DEFINITION_REPRESENTATION ( #61, #26 ) ;
#120 = CARTESIAN_POINT ( 'NONE',  ( -20.00000000000000711, 0.000000000000000000, 0.000000000000000000 ) ) ;
#121 = APPLICATION_PROTOCOL_DEFINITION ( 'draft international standard', 'automotive_design', 1998, #149 ) ;
#122 = FILL_AREA_STYLE ('',( #65 ) ) ;
#123 =( LENGTH_UNIT ( ) NAMED_UNIT ( * ) SI_UNIT ( .MILLI., .METRE. ) );
#124 =( GEOMETRIC_REPRESENTATION_CONTEXT ( 3 ) GLOBAL_UNCERTAINTY_ASSIGNED_CONTEXT ( ( #80 ) ) GLOBAL_UNIT_ASSIGNED_CONTEXT ( ( #221, #18, #179 ) ) REPRESENTATION_CONTEXT ( 'NONE', 'WORKASPACE' ) );
#125 = CARTESIAN_POINT ( 'NONE',  ( -8.607919692157075531, -6.074771420176111825, 0.000000000000000000 ) ) ;
#126 = CARTESIAN_POINT ( 'NONE',  ( -8.607919692157075531, -6.074771420176111825, 2.108332259663526440E-15 ) ) ;
#127 = DIRECTION ( 'NONE',  ( 0.000000000000000000, 0.000000000000000000, -1.000000000000000000 ) ) ;
#128 = CARTESIAN_POINT ( 'NONE',  ( 20.09811626851984556, -4.449711705723729871, -2.461309375713417273E-15 ) ) ;
#129 = AXIS2_PLACEMENT_3D ( 'NONE', #79, #57, #81 ) ;
#130 = CARTESIAN_POINT ( 'NONE',  ( 18.00000000000001066, 54.99394978242949605, -2.204364238465237006E-15 ) ) ;
#131 = EDGE_CURVE ( 'NONE', #236, #117, #67, .T. ) ;
#132 = VERTEX_POINT ( 'NONE', #256 ) ;
#133 = CARTESIAN_POINT ( 'NONE',  ( 20.00000000000000711, 7.138549101582838371E-14, -2.449293598294707302E-15 ) ) ;
#134 = CARTESIAN_POINT ( 'NONE',  ( 2.204364238465237006E-15, 0.000000000000000000, 18.00000000000001066 ) ) ;
#135 = DIRECTION ( 'NONE',  ( -0.000000000000000000, -1.000000000000000000, -0.000000000000000000 ) ) ;
#136 = CARTESIAN_POINT ( 'NONE',  ( 15.80536076038438864, -8.267448115426130784, -1.935598446457391749E-15 ) ) ;
#137 = STYLED_ITEM ( 'NONE', ( #226 ), #36 ) ;
#138 = EDGE_CURVE ( 'NONE', #38, #1, #157, .T. ) ;
#139 = ORIENTED_EDGE ( 'NONE', *, *, #185, .F. ) ;
#140 =( BOUNDED_SURFACE ( )  B_SPLINE_SURFACE ( 3, 3, ( 
 ( #210, #202, #5, #199 ),
 ( #108, #3, #244, #84 ),
 ( #88, #109, #104, #64 ),
 ( #24, #21, #106, #126 ),
 ( #164, #148, #187, #8 ),
 ( #160, #63, #165, #163 ),
 ( #19, #60, #228, #6 ) ),
 .UNSPECIFIED., .F., .F., .T. ) 
 B_SPLINE_SURFACE_WITH_KNOTS ( ( 4, 1, 1, 1, 4 ),
 ( 4, 4 ),
 ( 0.000000000000000000, 0.1464712006525069610, 0.3030871340769660804, 0.3884400140117153510, 1.000000000000000000 ),
 ( 0.000000000000000000, 1.000000000000000000 ),
 .UNSPECIFIED. ) 
 GEOMETRIC_REPRESENTATION_ITEM ( )  RATIONAL_B_SPLINE_SURFACE ( (
 ( 1.000000000000000000, 0.3333333333333334259, 0.3333333333333334259, 1.000000000000000000),
 ( 1.000000000000000000, 0.3333333333333334259, 0.3333333333333334259, 1.000000000000000000),
 ( 1.000000000000000000, 0.3333333333333334259, 0.3333333333333334259, 1.000000000000000000),
 ( 1.000000000000000000, 0.3333333333333334259, 0.3333333333333334259, 1.000000000000000000),
 ( 1.000000000000000000, 0.3333333333333334259, 0.3333333333333334259, 1.000000000000000000),
 ( 1.000000000000000000, 0.3333333333333334259, 0.3333333333333334259, 1.000000000000000000),
 ( 1.000000000000000000, 0.3333333333333334259, 0.3333333333333334259, 1.000000000000000000) ) ) 
 REPRESENTATION_ITEM ( '' )  SURFACE ( )  );
#141 = FILL_AREA_STYLE_COLOUR ( '', #147 ) ;
#142 =( NAMED_UNIT ( * ) PLANE_ANGLE_UNIT ( ) SI_UNIT ( $, .RADIAN. ) );
#143 = ORIENTED_EDGE ( 'NONE', *, *, #138, .F. ) ;
#144 = CYLINDRICAL_SURFACE ( 'NONE', #227, 18.00000000000001066 ) ;
#145 = EDGE_CURVE ( 'NONE', #236, #99, #183, .T. ) ;
#146 = PRODUCT_CONTEXT ( 'NONE', #215, 'mechanical' ) ;
#147 = COLOUR_RGB ( '',0.7921568627450980005, 0.8196078431372548767, 0.9333333333333333481 ) ;
#148 = CARTESIAN_POINT ( 'NONE',  ( 12.68882892666295881, 31.87702905419151023, 25.37765785332590696 ) ) ;
#149 = APPLICATION_CONTEXT ( 'automotive_design' ) ;
#150 = SURFACE_STYLE_FILL_AREA ( #122 ) ;
#151 =( GEOMETRIC_REPRESENTATION_CONTEXT ( 3 ) GLOBAL_UNCERTAINTY_ASSIGNED_CONTEXT ( ( #175 ) ) GLOBAL_UNIT_ASSIGNED_CONTEXT ( ( #197, #142, #37 ) ) REPRESENTATION_CONTEXT ( 'NONE', 'WORKASPACE' ) );
#152 = CARTESIAN_POINT ( 'NONE',  ( -18.00000000000001066, 54.99394978242949605, 0.000000000000000000 ) ) ;
#153 = PRODUCT_RELATED_PRODUCT_CATEGORY ( 'part', '', ( #39 ) ) ;
#154 = CARTESIAN_POINT ( 'NONE',  ( -18.00000000000001066, 54.99394978242949605, 0.000000000000000000 ) ) ;
#155 = CARTESIAN_POINT ( 'NONE',  ( 0.000000000000000000, 54.99394978242949605, -18.00000000000001066 ) ) ;
#156 = ORIENTED_EDGE ( 'NONE', *, *, #131, .F. ) ;
#157 = LINE ( 'NONE', #231, #72 ) ;
#158 = ORIENTED_EDGE ( 'NONE', *, *, #225, .T. ) ;
#159 = ORIENTED_EDGE ( 'NONE', *, *, #239, .T. ) ;
#160 = CARTESIAN_POINT ( 'NONE',  ( 13.22603914144890958, 23.97578254746925452, -1.619722649997301637E-15 ) ) ;
#161 = DIRECTION ( 'NONE',  ( -0.000000000000000000, -1.000000000000000000, -0.000000000000000000 ) ) ;
#162 = AXIS2_PLACEMENT_3D ( 'NONE', #211, #167, #188 ) ;
#163 = CARTESIAN_POINT ( 'NONE',  ( -13.22603914144890958, 23.97578254746925452, 3.239445299994603275E-15 ) ) ;
#164 = CARTESIAN_POINT ( 'NONE',  ( 12.68882892666295703, 31.87702905419150667, -1.553933372996613551E-15 ) ) ;
#165 = CARTESIAN_POINT ( 'NONE',  ( -13.22603914144890247, 23.97578254746925452, 26.45207828289781560 ) ) ;
#166 = CIRCLE ( 'NONE', #111, 18.00000000000001066 ) ;
#167 = DIRECTION ( 'NONE',  ( -0.000000000000000000, -1.000000000000000000, -0.000000000000000000 ) ) ;
#168 = DIRECTION ( 'NONE',  ( 0.000000000000000000, 0.000000000000000000, -1.000000000000000000 ) ) ;
#169 = CARTESIAN_POINT ( 'NONE',  ( -13.22603914144890780, 23.97578254746925452, -26.45207828289781204 ) ) ;
#170 = CARTESIAN_POINT ( 'NONE',  ( 0.000000000000000000, 54.99394978242949605, 0.000000000000000000 ) ) ;
#171 = AXIS2_PLACEMENT_3D ( 'NONE', #170, #9, #190 ) ;
#172 = ORIENTED_EDGE ( 'NONE', *, *, #43, .F. ) ;
#173 = CARTESIAN_POINT ( 'NONE',  ( -15.80536076038438864, -8.267448115426130784, 0.000000000000000000 ) ) ;
#174 = ORIENTED_EDGE ( 'NONE', *, *, #35, .T. ) ;
#175 = UNCERTAINTY_MEASURE_WITH_UNIT (LENGTH_MEASURE( 1.000000000000000082E-05 ), #197, 'distance_accuracy_value', 'NONE');
#176 = EDGE_CURVE ( 'NONE', #99, #38, #85, .T. ) ;
#177 = STYLED_ITEM ( 'NONE', ( #107 ), #26 ) ;
#178 = ORIENTED_EDGE ( 'NONE', *, *, #68, .F. ) ;
#179 =( NAMED_UNIT ( * ) SI_UNIT ( $, .STERADIAN. ) SOLID_ANGLE_UNIT ( ) );
#180 = PRODUCT_DEFINITION ( 'UNKNOWN', '', #53, #240 ) ;
#181 = CARTESIAN_POINT ( 'NONE',  ( -12.68882892666295703, 31.87702905419150667, 0.000000000000000000 ) ) ;
#182 = DIRECTION ( 'NONE',  ( 0.000000000000000000, 0.000000000000000000, -1.000000000000000000 ) ) ;
#183 = CIRCLE ( 'NONE', #162, 18.00000000000001066 ) ;
#184 = SURFACE_SIDE_STYLE ('',( #150 ) ) ;
#185 = EDGE_CURVE ( 'NONE', #14, #132, #218, .T. ) ;
#186 = CARTESIAN_POINT ( 'NONE',  ( -20.09811626851984556, -4.449711705723729871, 0.000000000000000000 ) ) ;
#187 = CARTESIAN_POINT ( 'NONE',  ( -12.68882892666295170, 31.87702905419151023, 25.37765785332590696 ) ) ;
#188 = DIRECTION ( 'NONE',  ( 0.000000000000000000, 0.000000000000000000, -1.000000000000000000 ) ) ;
#189 = CARTESIAN_POINT ( 'NONE',  ( 0.000000000000000000, 54.99394978242949605, 0.000000000000000000 ) ) ;
#190 = DIRECTION ( 'NONE',  ( 0.000000000000000000, 0.000000000000000000, -1.000000000000000000 ) ) ;
#191 = ORIENTED_EDGE ( 'NONE', *, *, #176, .T. ) ;
#192 = CARTESIAN_POINT ( 'NONE',  ( 20.00000000000000711, 0.000000000000000000, -2.449293598294707302E-15 ) ) ;
#193 = CARTESIAN_POINT ( 'NONE',  ( 20.09811626851983846, -4.449711705723729871, -40.19623253703967691 ) ) ;
#194 = ORIENTED_EDGE ( 'NONE', *, *, #68, .T. ) ;
#195 = CARTESIAN_POINT ( 'NONE',  ( 12.68882892666295703, 31.87702905419150667, -1.553933372996613551E-15 ) ) ;
#196 = AXIS2_PLACEMENT_3D ( 'NONE', #189, #46, #127 ) ;
#197 =( LENGTH_UNIT ( ) NAMED_UNIT ( * ) SI_UNIT ( .MILLI., .METRE. ) );
#198 = ORIENTED_EDGE ( 'NONE', *, *, #145, .F. ) ;
#199 = CARTESIAN_POINT ( 'NONE',  ( -20.00000000000000711, 7.138549101582838371E-14, 4.898587196589414604E-15 ) ) ;
#200 = CARTESIAN_POINT ( 'NONE',  ( -15.80536076038438864, -8.267448115426130784, 0.000000000000000000 ) ) ;
#201 = DIRECTION ( 'NONE',  ( 0.000000000000000000, 0.000000000000000000, 1.000000000000000000 ) ) ;
#202 = CARTESIAN_POINT ( 'NONE',  ( 20.00000000000001066, 7.138549101582838371E-14, 40.00000000000000711 ) ) ;
#203 = APPLICATION_PROTOCOL_DEFINITION ( 'draft international standard', 'automotive_design', 1998, #215 ) ;
#204 =( GEOMETRIC_REPRESENTATION_CONTEXT ( 3 ) GLOBAL_UNCERTAINTY_ASSIGNED_CONTEXT ( ( #92 ) ) GLOBAL_UNIT_ASSIGNED_CONTEXT ( ( #123, #87, #224 ) ) REPRESENTATION_CONTEXT ( 'NONE', 'WORKASPACE' ) );
#205 = CARTESIAN_POINT ( 'NONE',  ( 2.204364238465237006E-15, 54.99394978242949605, 18.00000000000001066 ) ) ;
#206 = DIRECTION ( 'NONE',  ( -0.000000000000000000, -1.000000000000000000, -0.000000000000000000 ) ) ;
#207 = CARTESIAN_POINT ( 'NONE',  ( -12.68882892666295703, 31.87702905419151023, -25.37765785332590696 ) ) ;
#208 = CARTESIAN_POINT ( 'NONE',  ( 20.00000000000000355, 7.138549101582838371E-14, -40.00000000000000711 ) ) ;
#209 = FACE_OUTER_BOUND ( 'NONE', #97, .T. ) ;
#210 = CARTESIAN_POINT ( 'NONE',  ( 20.00000000000000711, 7.138549101582838371E-14, -2.449293598294707302E-15 ) ) ;
#211 = CARTESIAN_POINT ( 'NONE',  ( 0.000000000000000000, 54.99394978242949605, 0.000000000000000000 ) ) ;
#212 = FACE_OUTER_BOUND ( 'NONE', #234, .T. ) ;
#213 = CARTESIAN_POINT ( 'NONE',  ( 12.68882892666295703, 31.87702905419150667, -1.553933372996613551E-15 ) ) ;
#214 = AXIS2_PLACEMENT_3D ( 'NONE', #15, #216, #260 ) ;
#215 = APPLICATION_CONTEXT ( 'automotive_design' ) ;
#216 = DIRECTION ( 'NONE',  ( -0.000000000000000000, -1.000000000000000000, -0.000000000000000000 ) ) ;
#217 = B_SPLINE_CURVE_WITH_KNOTS ( 'NONE', 3,
 ( #192, #75, #136, #32, #195, #98, #219 ),
 .UNSPECIFIED., .F., .F.,
 ( 4, 1, 1, 1, 4 ),
 ( 0.000000000000000000, 0.1464712006525069610, 0.3030871340769660804, 0.3884400140117153510, 1.000000000000000000 ),
 .UNSPECIFIED. ) ;
#218 = CIRCLE ( 'NONE', #55, 20.00000000000000711 ) ;
#219 = CARTESIAN_POINT ( 'NONE',  ( 18.00000000000001066, 54.99394978242949605, -2.204364238465237006E-15 ) ) ;
#220 = EDGE_LOOP ( 'NONE', ( #139, #52 ) ) ;
#221 =( LENGTH_UNIT ( ) NAMED_UNIT ( * ) SI_UNIT ( .MILLI., .METRE. ) );
#222 = DIRECTION ( 'NONE',  ( 0.000000000000000000, 0.000000000000000000, -1.000000000000000000 ) ) ;
#223 = PRESENTATION_LAYER_ASSIGNMENT (  '', '', ( #137 ) ) ;
#224 =( NAMED_UNIT ( * ) SI_UNIT ( $, .STERADIAN. ) SOLID_ANGLE_UNIT ( ) );
#225 = EDGE_CURVE ( 'NONE', #38, #56, #66, .T. ) ;
#226 = PRESENTATION_STYLE_ASSIGNMENT (( #245 ) ) ;
#227 = AXIS2_PLACEMENT_3D ( 'NONE', #44, #206, #182 ) ;
#228 = CARTESIAN_POINT ( 'NONE',  ( -17.99999999999999645, 54.99394978242948895, 36.00000000000001421 ) ) ;
#229 = CARTESIAN_POINT ( 'NONE',  ( -20.09811626851984556, -4.449711705723729871, 0.000000000000000000 ) ) ;
#230 =( BOUNDED_SURFACE ( )  B_SPLINE_SURFACE ( 3, 3, ( 
 ( #94, #110, #208, #133 ),
 ( #229, #13, #193, #128 ),
 ( #173, #10, #49, #27 ),
 ( #31, #112, #254, #250 ),
 ( #233, #207, #51, #213 ),
 ( #71, #169, #235, #237 ),
 ( #154, #96, #47, #130 ) ),
 .UNSPECIFIED., .F., .F., .T. ) 
 B_SPLINE_SURFACE_WITH_KNOTS ( ( 4, 1, 1, 1, 4 ),
 ( 4, 4 ),
 ( 0.000000000000000000, 0.1464712006525069610, 0.3030871340769660804, 0.3884400140117153510, 1.000000000000000000 ),
 ( 0.000000000000000000, 1.000000000000000000 ),
 .UNSPECIFIED. ) 
 GEOMETRIC_REPRESENTATION_ITEM ( )  RATIONAL_B_SPLINE_SURFACE ( (
 ( 1.000000000000000000, 0.3333333333333334259, 0.3333333333333334259, 1.000000000000000000),
 ( 1.000000000000000000, 0.3333333333333334259, 0.3333333333333334259, 1.000000000000000000),
 ( 1.000000000000000000, 0.3333333333333334259, 0.3333333333333334259, 1.000000000000000000),
 ( 1.000000000000000000, 0.3333333333333334259, 0.3333333333333334259, 1.000000000000000000),
 ( 1.000000000000000000, 0.3333333333333334259, 0.3333333333333334259, 1.000000000000000000),
 ( 1.000000000000000000, 0.3333333333333334259, 0.3333333333333334259, 1.000000000000000000),
 ( 1.000000000000000000, 0.3333333333333334259, 0.3333333333333334259, 1.000000000000000000) ) ) 
 REPRESENTATION_ITEM ( '' )  SURFACE ( )  );
#231 = CARTESIAN_POINT ( 'NONE',  ( 2.204364238465237006E-15, -40.11565358341767507, 18.00000000000001066 ) ) ;
#232 = CIRCLE ( 'NONE', #214, 20.00000000000000711 ) ;
#233 = CARTESIAN_POINT ( 'NONE',  ( -12.68882892666295703, 31.87702905419150667, 0.000000000000000000 ) ) ;
#234 = EDGE_LOOP ( 'NONE', ( #243, #118, #174, #238, #114 ) ) ;
#235 = CARTESIAN_POINT ( 'NONE',  ( 13.22603914144890602, 23.97578254746925452, -26.45207828289781204 ) ) ;
#236 = VERTEX_POINT ( 'NONE', #155 ) ;
#237 = CARTESIAN_POINT ( 'NONE',  ( 13.22603914144890958, 23.97578254746925452, -1.619722649997301637E-15 ) ) ;
#238 = ORIENTED_EDGE ( 'NONE', *, *, #225, .F. ) ;
#239 = EDGE_CURVE ( 'NONE', #132, #99, #217, .T. ) ;
#240 = PRODUCT_DEFINITION_CONTEXT ( 'detailed design', #149, 'design' ) ;
#241 = SURFACE_STYLE_FILL_AREA ( #58 ) ;
#242 = EDGE_CURVE ( 'NONE', #132, #14, #232, .T. ) ;
#243 = ORIENTED_EDGE ( 'NONE', *, *, #239, .F. ) ;
#244 = CARTESIAN_POINT ( 'NONE',  ( -20.09811626851983490, -4.449711705723729871, 40.19623253703969112 ) ) ;
#245 = SURFACE_STYLE_USAGE ( .BOTH. , #184 ) ;
#246 = CARTESIAN_POINT ( 'NONE',  ( -18.00000000000001066, 54.99394978242949605, 0.000000000000000000 ) ) ;
#247 = CIRCLE ( 'NONE', #196, 18.00000000000001066 ) ;
#248 = DIRECTION ( 'NONE',  ( -0.000000000000000000, -1.000000000000000000, -0.000000000000000000 ) ) ;
#249 = DIRECTION ( 'NONE',  ( -0.000000000000000000, -1.000000000000000000, -0.000000000000000000 ) ) ;
#250 = CARTESIAN_POINT ( 'NONE',  ( 8.607919692157075531, -6.074771420176111825, -1.054166129831763220E-15 ) ) ;
#251 = ADVANCED_FACE ( 'NONE', ( #258, #33 ), #34, .F. ) ;
#252 = AXIS2_PLACEMENT_3D ( 'NONE', #2, #161, #222 ) ;
#253 = CLOSED_SHELL ( 'NONE', ( #59, #41, #7, #251, #86 ) ) ;
#254 = CARTESIAN_POINT ( 'NONE',  ( 8.607919692157073754, -6.074771420176111825, -17.21583938431414751 ) ) ;
#255 = ORIENTED_EDGE ( 'NONE', *, *, #35, .F. ) ;
#256 = CARTESIAN_POINT ( 'NONE',  ( 20.00000000000000711, 0.000000000000000000, -2.449293598294707302E-15 ) ) ;
#257 = ORIENTED_EDGE ( 'NONE', *, *, #43, .T. ) ;
#258 = FACE_OUTER_BOUND ( 'NONE', #220, .T. ) ;
#259 = EDGE_LOOP ( 'NONE', ( #30, #159, #198, #178, #255 ) ) ;
#260 = DIRECTION ( 'NONE',  ( 0.000000000000000000, 0.000000000000000000, -1.000000000000000000 ) ) ;
ENDSEC;
END-ISO-10303-21;
