ISO-10303-21;
HEADER;
FILE_DESCRIPTION (( 'STEP AP214' ),
    '1' );
FILE_NAME ('manchon central.STEP',
    '2024-03-26T20:47:48',
    ( '' ),
    ( '' ),
    'SwSTEP 2.0',
    'SolidWorks 2020',
    '' );
FILE_SCHEMA (( 'AUTOMOTIVE_DESIGN' ));
ENDSEC;

DATA;
#1 = AXIS2_PLACEMENT_3D ( 'NONE', #108, #183, #89 ) ;
#2 = PLANE ( 'NONE',  #110 ) ;
#3 = EDGE_CURVE ( 'NONE', #188, #317, #145, .T. ) ;
#4 = DIRECTION ( 'NONE',  ( 0.000000000000000000, 0.000000000000000000, -1.000000000000000000 ) ) ;
#5 = CIRCLE ( 'NONE', #242, 15.00000000000000000 ) ;
#6 = PRODUCT_CONTEXT ( 'NONE', #283, 'mechanical' ) ;
#7 = CARTESIAN_POINT ( 'NONE',  ( 0.000000000000000000, 287.8871698561218864, 0.000000000000000000 ) ) ;
#8 = CARTESIAN_POINT ( 'NONE',  ( 0.000000000000000000, 300.0000000000000000, 0.000000000000000000 ) ) ;
#9 = CIRCLE ( 'NONE', #184, 18.00000000000001066 ) ;
#10 = CIRCLE ( 'NONE', #227, 4.999999999999995559 ) ;
#11 = DIRECTION ( 'NONE',  ( 0.000000000000000000, 0.000000000000000000, -1.000000000000000000 ) ) ;
#12 = FACE_OUTER_BOUND ( 'NONE', #289, .T. ) ;
#13 = DIRECTION ( 'NONE',  ( 0.000000000000000000, 0.000000000000000000, -1.000000000000000000 ) ) ;
#14 = ORIENTED_EDGE ( 'NONE', *, *, #128, .F. ) ;
#15 = EDGE_CURVE ( 'NONE', #230, #67, #10, .T. ) ;
#16 = PRODUCT_RELATED_PRODUCT_CATEGORY ( 'part', '', ( #115 ) ) ;
#17 = LINE ( 'NONE', #112, #261 ) ;
#18 = CARTESIAN_POINT ( 'NONE',  ( 0.000000000000000000, 370.0000000000000000, 0.000000000000000000 ) ) ;
#19 = EDGE_LOOP ( 'NONE', ( #73, #182, #216, #64 ) ) ;
#20 = CARTESIAN_POINT ( 'NONE',  ( 0.000000000000000000, 370.0000000000000000, -15.00000000000000000 ) ) ;
#21 = AXIS2_PLACEMENT_3D ( 'NONE', #103, #79, #76 ) ;
#22 = ORIENTED_EDGE ( 'NONE', *, *, #119, .F. ) ;
#23 = PRODUCT_DEFINITION_CONTEXT ( 'detailed design', #200, 'design' ) ;
#24 = CARTESIAN_POINT ( 'NONE',  ( 1.836970198721029589E-15, 370.0000000000000000, 15.00000000000000000 ) ) ;
#25 = EDGE_LOOP ( 'NONE', ( #193, #162 ) ) ;
#26 = ORIENTED_EDGE ( 'NONE', *, *, #49, .T. ) ;
#27 =( LENGTH_UNIT ( ) NAMED_UNIT ( * ) SI_UNIT ( .MILLI., .METRE. ) );
#28 = ADVANCED_FACE ( 'NONE', ( #199 ), #225, .F. ) ;
#29 = DIRECTION ( 'NONE',  ( -0.000000000000000000, -1.000000000000000000, -0.000000000000000000 ) ) ;
#30 = CARTESIAN_POINT ( 'NONE',  ( 0.000000000000000000, 380.0000000000000000, 0.000000000000000000 ) ) ;
#31 = DIRECTION ( 'NONE',  ( 0.000000000000000000, 0.000000000000000000, 1.000000000000000000 ) ) ;
#32 = CIRCLE ( 'NONE', #99, 5.000000000000000888 ) ;
#33 = ORIENTED_EDGE ( 'NONE', *, *, #15, .T. ) ;
#34 = AXIS2_PLACEMENT_3D ( 'NONE', #239, #237, #215 ) ;
#35 = FACE_OUTER_BOUND ( 'NONE', #25, .T. ) ;
#36 = EDGE_CURVE ( 'NONE', #67, #230, #60, .T. ) ;
#37 = ORIENTED_EDGE ( 'NONE', *, *, #179, .T. ) ;
#38 = ORIENTED_EDGE ( 'NONE', *, *, #81, .T. ) ;
#39 = AXIS2_PLACEMENT_3D ( 'NONE', #24, #189, #122 ) ;
#40 = CARTESIAN_POINT ( 'NONE',  ( 1.836970198721029589E-15, 310.0000000000000000, 15.00000000000000000 ) ) ;
#41 =( LENGTH_UNIT ( ) NAMED_UNIT ( * ) SI_UNIT ( .MILLI., .METRE. ) );
#42 = VERTEX_POINT ( 'NONE', #78 ) ;
#43 = CARTESIAN_POINT ( 'NONE',  ( 0.000000000000000000, 370.0000000000000000, -5.000000000000000888 ) ) ;
#44 = ORIENTED_EDGE ( 'NONE', *, *, #288, .F. ) ;
#45 =( GEOMETRIC_REPRESENTATION_CONTEXT ( 3 ) GLOBAL_UNCERTAINTY_ASSIGNED_CONTEXT ( ( #318 ) ) GLOBAL_UNIT_ASSIGNED_CONTEXT ( ( #41, #164, #265 ) ) REPRESENTATION_CONTEXT ( 'NONE', 'WORKASPACE' ) );
#46 = DIRECTION ( 'NONE',  ( -0.000000000000000000, -1.000000000000000000, -0.000000000000000000 ) ) ;
#47 = ORIENTED_EDGE ( 'NONE', *, *, #128, .T. ) ;
#48 = VECTOR ( 'NONE', #269, 1000.000000000000000 ) ;
#49 = EDGE_CURVE ( 'NONE', #317, #188, #130, .T. ) ;
#50 = FACE_OUTER_BOUND ( 'NONE', #235, .T. ) ;
#51 = CARTESIAN_POINT ( 'NONE',  ( 0.000000000000000000, 310.0000000000000568, 0.000000000000000000 ) ) ;
#52 = SURFACE_STYLE_USAGE ( .BOTH. , #198 ) ;
#53 = CARTESIAN_POINT ( 'NONE',  ( 0.000000000000000000, 370.0000000000000000, 0.000000000000000000 ) ) ;
#54 = CARTESIAN_POINT ( 'NONE',  ( 0.000000000000000000, 380.0000000000000000, 0.000000000000000000 ) ) ;
#55 = FILL_AREA_STYLE_COLOUR ( '', #274 ) ;
#56 = CARTESIAN_POINT ( 'NONE',  ( 0.000000000000000000, 287.8871698561218864, -18.00000000000001066 ) ) ;
#57 = AXIS2_PLACEMENT_3D ( 'NONE', #310, #281, #13 ) ;
#58 = ORIENTED_EDGE ( 'NONE', *, *, #94, .F. ) ;
#59 = ADVANCED_FACE ( 'NONE', ( #148, #172 ), #2, .F. ) ;
#60 = CIRCLE ( 'NONE', #280, 4.999999999999995559 ) ;
#61 = CARTESIAN_POINT ( 'NONE',  ( 0.000000000000000000, 380.0000000000000000, 0.000000000000000000 ) ) ;
#62 = ORIENTED_EDGE ( 'NONE', *, *, #288, .T. ) ;
#63 = SURFACE_STYLE_USAGE ( .BOTH. , #204 ) ;
#64 = ORIENTED_EDGE ( 'NONE', *, *, #36, .F. ) ;
#65 = CARTESIAN_POINT ( 'NONE',  ( 0.000000000000000000, 287.8871698561218864, 0.000000000000000000 ) ) ;
#66 = DIRECTION ( 'NONE',  ( -0.000000000000000000, -1.000000000000000000, -0.000000000000000000 ) ) ;
#67 = VERTEX_POINT ( 'NONE', #203 ) ;
#68 = DIRECTION ( 'NONE',  ( -0.000000000000000000, -1.000000000000000000, -0.000000000000000000 ) ) ;
#69 = EDGE_CURVE ( 'NONE', #252, #96, #158, .T. ) ;
#70 = PRODUCT_DEFINITION ( 'UNKNOWN', '', #316, #23 ) ;
#71 =( LENGTH_UNIT ( ) NAMED_UNIT ( * ) SI_UNIT ( .MILLI., .METRE. ) );
#72 = ORIENTED_EDGE ( 'NONE', *, *, #127, .F. ) ;
#73 = ORIENTED_EDGE ( 'NONE', *, *, #160, .F. ) ;
#74 = AXIS2_PLACEMENT_3D ( 'NONE', #262, #213, #313 ) ;
#75 =( NAMED_UNIT ( * ) PLANE_ANGLE_UNIT ( ) SI_UNIT ( $, .RADIAN. ) );
#76 = DIRECTION ( 'NONE',  ( 0.000000000000000000, 0.000000000000000000, -1.000000000000000000 ) ) ;
#77 = LINE ( 'NONE', #171, #48 ) ;
#78 = CARTESIAN_POINT ( 'NONE',  ( 2.204364238465237006E-15, 300.0000000000000000, 18.00000000000001066 ) ) ;
#79 = DIRECTION ( 'NONE',  ( -0.000000000000000000, -1.000000000000000000, -0.000000000000000000 ) ) ;
#80 = DIRECTION ( 'NONE',  ( 0.000000000000000000, 0.000000000000000000, -1.000000000000000000 ) ) ;
#81 = EDGE_CURVE ( 'NONE', #317, #228, #98, .T. ) ;
#82 = DIRECTION ( 'NONE',  ( -0.000000000000000000, -1.000000000000000000, -0.000000000000000000 ) ) ;
#83 = TOROIDAL_SURFACE ( 'NONE', #34, 15.00000000000000000, 10.00000000000000355 ) ;
#84 = EDGE_LOOP ( 'NONE', ( #22, #47, #185, #118 ) ) ;
#85 = DIRECTION ( 'NONE',  ( 0.000000000000000000, 0.000000000000000000, -1.000000000000000000 ) ) ;
#86 = ORIENTED_EDGE ( 'NONE', *, *, #307, .T. ) ;
#87 = CIRCLE ( 'NONE', #139, 15.00000000000000000 ) ;
#88 = DIRECTION ( 'NONE',  ( 0.000000000000000000, 0.000000000000000000, -1.000000000000000000 ) ) ;
#89 = DIRECTION ( 'NONE',  ( 0.000000000000000000, 0.000000000000000000, -1.000000000000000000 ) ) ;
#90 = ADVANCED_BREP_SHAPE_REPRESENTATION ( 'manchon central', ( #222, #232 ), #299 ) ;
#91 = DIRECTION ( 'NONE',  ( -0.000000000000000000, -1.000000000000000000, -0.000000000000000000 ) ) ;
#92 = CYLINDRICAL_SURFACE ( 'NONE', #168, 4.999999999999998224 ) ;
#93 = ORIENTED_EDGE ( 'NONE', *, *, #271, .T. ) ;
#94 = EDGE_CURVE ( 'NONE', #156, #214, #5, .T. ) ;
#95 = DIRECTION ( 'NONE',  ( 0.000000000000000000, 0.000000000000000000, 1.000000000000000000 ) ) ;
#96 = VERTEX_POINT ( 'NONE', #275 ) ;
#97 = COLOUR_RGB ( '',0.7921568627450980005, 0.8196078431372548767, 0.9333333333333333481 ) ;
#98 = LINE ( 'NONE', #56, #167 ) ;
#99 = AXIS2_PLACEMENT_3D ( 'NONE', #53, #153, #11 ) ;
#100 = DIRECTION ( 'NONE',  ( -0.000000000000000000, -1.000000000000000000, -0.000000000000000000 ) ) ;
#101 = ADVANCED_FACE ( 'NONE', ( #197 ), #175, .T. ) ;
#102 =( NAMED_UNIT ( * ) SI_UNIT ( $, .STERADIAN. ) SOLID_ANGLE_UNIT ( ) );
#103 = CARTESIAN_POINT ( 'NONE',  ( 0.000000000000000000, 380.0000000000000000, 0.000000000000000000 ) ) ;
#104 =( GEOMETRIC_REPRESENTATION_CONTEXT ( 3 ) GLOBAL_UNCERTAINTY_ASSIGNED_CONTEXT ( ( #314 ) ) GLOBAL_UNIT_ASSIGNED_CONTEXT ( ( #27, #75, #195 ) ) REPRESENTATION_CONTEXT ( 'NONE', 'WORKASPACE' ) );
#105 = DIRECTION ( 'NONE',  ( 0.000000000000000000, 0.000000000000000000, -1.000000000000000000 ) ) ;
#106 = FACE_OUTER_BOUND ( 'NONE', #121, .T. ) ;
#107 = DIRECTION ( 'NONE',  ( -0.000000000000000000, -1.000000000000000000, -0.000000000000000000 ) ) ;
#108 = CARTESIAN_POINT ( 'NONE',  ( -18.00000000000001066, 380.0000000000000000, 0.000000000000000000 ) ) ;
#109 = ORIENTED_EDGE ( 'NONE', *, *, #160, .T. ) ;
#110 = AXIS2_PLACEMENT_3D ( 'NONE', #169, #126, #244 ) ;
#111 = CARTESIAN_POINT ( 'NONE',  ( 1.836970198721029589E-15, 380.0000000000000000, 15.00000000000000000 ) ) ;
#112 = CARTESIAN_POINT ( 'NONE',  ( 0.000000000000000000, 287.8871698561218864, -4.999999999999998224 ) ) ;
#113 = ORIENTED_EDGE ( 'NONE', *, *, #69, .T. ) ;
#114 = AXIS2_PLACEMENT_3D ( 'NONE', #309, #251, #88 ) ;
#115 = PRODUCT ( 'manchon central', 'manchon central', '', ( #6 ) ) ;
#116 = AXIS2_PLACEMENT_3D ( 'NONE', #54, #268, #219 ) ;
#117 = DIRECTION ( 'NONE',  ( 0.000000000000000000, 0.000000000000000000, -1.000000000000000000 ) ) ;
#118 = ORIENTED_EDGE ( 'NONE', *, *, #240, .F. ) ;
#119 = EDGE_CURVE ( 'NONE', #137, #259, #32, .T. ) ;
#120 = CARTESIAN_POINT ( 'NONE',  ( 0.000000000000000000, 300.0000000000000000, -18.00000000000001066 ) ) ;
#121 = EDGE_LOOP ( 'NONE', ( #26, #163, #44, #266 ) ) ;
#122 = DIRECTION ( 'NONE',  ( -1.224646799147353207E-16, 0.000000000000000000, -1.000000000000000000 ) ) ;
#123 = ORIENTED_EDGE ( 'NONE', *, *, #307, .F. ) ;
#124 = CIRCLE ( 'NONE', #39, 10.00000000000000355 ) ;
#125 = CIRCLE ( 'NONE', #210, 5.000000000000000888 ) ;
#126 = DIRECTION ( 'NONE',  ( 0.000000000000000000, 1.000000000000000000, 0.000000000000000000 ) ) ;
#127 = EDGE_CURVE ( 'NONE', #188, #42, #133, .T. ) ;
#128 = EDGE_CURVE ( 'NONE', #137, #67, #77, .T. ) ;
#129 = DIRECTION ( 'NONE',  ( 1.000000000000000000, 0.000000000000000000, 0.000000000000000000 ) ) ;
#130 = CIRCLE ( 'NONE', #21, 18.00000000000001066 ) ;
#131 = EDGE_LOOP ( 'NONE', ( #113, #109, #192, #282 ) ) ;
#132 = ORIENTED_EDGE ( 'NONE', *, *, #119, .T. ) ;
#133 = LINE ( 'NONE', #194, #181 ) ;
#134 = FACE_BOUND ( 'NONE', #286, .T. ) ;
#135 = PLANE ( 'NONE',  #1 ) ;
#136 = CARTESIAN_POINT ( 'NONE',  ( 2.204364238465237006E-15, 380.0000000000000000, 18.00000000000001066 ) ) ;
#137 = VERTEX_POINT ( 'NONE', #149 ) ;
#138 = FACE_OUTER_BOUND ( 'NONE', #131, .T. ) ;
#139 = AXIS2_PLACEMENT_3D ( 'NONE', #61, #302, #85 ) ;
#140 = DIRECTION ( 'NONE',  ( 0.000000000000000000, 0.000000000000000000, -1.000000000000000000 ) ) ;
#141 = UNCERTAINTY_MEASURE_WITH_UNIT (LENGTH_MEASURE( 1.000000000000000082E-05 ), #71, 'distance_accuracy_value', 'NONE');
#142 = TOROIDAL_SURFACE ( 'NONE', #292, 15.00000000000000000, 10.00000000000000355 ) ;
#143 = ORIENTED_EDGE ( 'NONE', *, *, #205, .T. ) ;
#144 = MECHANICAL_DESIGN_GEOMETRIC_PRESENTATION_REPRESENTATION (  '', ( #284 ), #104 ) ;
#145 = CIRCLE ( 'NONE', #116, 18.00000000000001066 ) ;
#146 = CARTESIAN_POINT ( 'NONE',  ( 0.000000000000000000, 310.0000000000000568, -4.999999999999995559 ) ) ;
#147 = ORIENTED_EDGE ( 'NONE', *, *, #69, .F. ) ;
#148 = FACE_BOUND ( 'NONE', #255, .T. ) ;
#149 = CARTESIAN_POINT ( 'NONE',  ( 1.224646799147353454E-15, 370.0000000000000000, 5.000000000000000888 ) ) ;
#150 = CARTESIAN_POINT ( 'NONE',  ( 0.000000000000000000, 310.0000000000000568, 0.000000000000000000 ) ) ;
#151 = AXIS2_PLACEMENT_3D ( 'NONE', #7, #247, #248 ) ;
#152 = DIRECTION ( 'NONE',  ( -0.000000000000000000, -1.000000000000000000, -0.000000000000000000 ) ) ;
#153 = DIRECTION ( 'NONE',  ( -0.000000000000000000, -1.000000000000000000, -0.000000000000000000 ) ) ;
#154 = PRESENTATION_LAYER_ASSIGNMENT (  '', '', ( #293 ) ) ;
#155 = DIRECTION ( 'NONE',  ( 1.000000000000000000, 0.000000000000000000, -1.224646799147353207E-16 ) ) ;
#156 = VERTEX_POINT ( 'NONE', #285 ) ;
#157 = CARTESIAN_POINT ( 'NONE',  ( 0.000000000000000000, 370.0000000000000000, 0.000000000000000000 ) ) ;
#158 = CIRCLE ( 'NONE', #223, 15.00000000000007283 ) ;
#159 = ADVANCED_FACE ( 'NONE', ( #208 ), #142, .T. ) ;
#160 = EDGE_CURVE ( 'NONE', #96, #67, #263, .T. ) ;
#161 = SURFACE_STYLE_FILL_AREA ( #305 ) ;
#162 = ORIENTED_EDGE ( 'NONE', *, *, #3, .F. ) ;
#163 = ORIENTED_EDGE ( 'NONE', *, *, #127, .T. ) ;
#164 =( NAMED_UNIT ( * ) PLANE_ANGLE_UNIT ( ) SI_UNIT ( $, .RADIAN. ) );
#165 = ORIENTED_EDGE ( 'NONE', *, *, #240, .T. ) ;
#166 = DIRECTION ( 'NONE',  ( 0.000000000000000000, 0.000000000000000000, -1.000000000000000000 ) ) ;
#167 = VECTOR ( 'NONE', #221, 1000.000000000000000 ) ;
#168 = AXIS2_PLACEMENT_3D ( 'NONE', #312, #91, #166 ) ;
#169 = CARTESIAN_POINT ( 'NONE',  ( -18.00000000000001066, 300.0000000000000000, 0.000000000000000000 ) ) ;
#170 = ADVANCED_FACE ( 'NONE', ( #12 ), #246, .T. ) ;
#171 = CARTESIAN_POINT ( 'NONE',  ( 6.123233995736764310E-16, 287.8871698561218864, 4.999999999999998224 ) ) ;
#172 = FACE_OUTER_BOUND ( 'NONE', #291, .T. ) ;
#173 = AXIS2_PLACEMENT_3D ( 'NONE', #20, #315, #95 ) ;
#174 = DIRECTION ( 'NONE',  ( -0.000000000000000000, -1.000000000000000000, -0.000000000000000000 ) ) ;
#175 = CYLINDRICAL_SURFACE ( 'NONE', #196, 18.00000000000001066 ) ;
#176 = CARTESIAN_POINT ( 'NONE',  ( 0.000000000000000000, 310.0000000000000000, 0.000000000000000000 ) ) ;
#177 = ORIENTED_EDGE ( 'NONE', *, *, #94, .T. ) ;
#178 = ADVANCED_FACE ( 'NONE', ( #106 ), #206, .T. ) ;
#179 = EDGE_CURVE ( 'NONE', #214, #156, #87, .T. ) ;
#180 = DIRECTION ( 'NONE',  ( -0.000000000000000000, -1.000000000000000000, -0.000000000000000000 ) ) ;
#181 = VECTOR ( 'NONE', #294, 1000.000000000000000 ) ;
#182 = ORIENTED_EDGE ( 'NONE', *, *, #217, .T. ) ;
#183 = DIRECTION ( 'NONE',  ( 0.000000000000000000, -1.000000000000000000, -0.000000000000000000 ) ) ;
#184 = AXIS2_PLACEMENT_3D ( 'NONE', #8, #46, #140 ) ;
#185 = ORIENTED_EDGE ( 'NONE', *, *, #36, .T. ) ;
#186 = ORIENTED_EDGE ( 'NONE', *, *, #179, .F. ) ;
#187 = DIRECTION ( 'NONE',  ( -0.000000000000000000, -1.000000000000000000, -0.000000000000000000 ) ) ;
#188 = VERTEX_POINT ( 'NONE', #136 ) ;
#189 = DIRECTION ( 'NONE',  ( 1.000000000000000000, 0.000000000000000000, -1.224646799147353207E-16 ) ) ;
#190 = ORIENTED_EDGE ( 'NONE', *, *, #297, .T. ) ;
#191 =( NAMED_UNIT ( * ) PLANE_ANGLE_UNIT ( ) SI_UNIT ( $, .RADIAN. ) );
#192 = ORIENTED_EDGE ( 'NONE', *, *, #15, .F. ) ;
#193 = ORIENTED_EDGE ( 'NONE', *, *, #49, .F. ) ;
#194 = CARTESIAN_POINT ( 'NONE',  ( 2.204364238465237006E-15, 287.8871698561218864, 18.00000000000001066 ) ) ;
#195 =( NAMED_UNIT ( * ) SI_UNIT ( $, .STERADIAN. ) SOLID_ANGLE_UNIT ( ) );
#196 = AXIS2_PLACEMENT_3D ( 'NONE', #277, #100, #295 ) ;
#197 = FACE_OUTER_BOUND ( 'NONE', #257, .T. ) ;
#198 = SURFACE_SIDE_STYLE ('',( #270 ) ) ;
#199 = FACE_OUTER_BOUND ( 'NONE', #212, .T. ) ;
#200 = APPLICATION_CONTEXT ( 'automotive_design' ) ;
#201 = PRESENTATION_LAYER_ASSIGNMENT (  '', '', ( #284 ) ) ;
#202 = CARTESIAN_POINT ( 'NONE',  ( 0.000000000000000000, 0.000000000000000000, 0.000000000000000000 ) ) ;
#203 = CARTESIAN_POINT ( 'NONE',  ( 6.123233995736762338E-16, 310.0000000000000568, 4.999999999999995559 ) ) ;
#204 = SURFACE_SIDE_STYLE ('',( #161 ) ) ;
#205 = EDGE_CURVE ( 'NONE', #42, #228, #249, .T. ) ;
#206 = CYLINDRICAL_SURFACE ( 'NONE', #267, 18.00000000000001066 ) ;
#207 = ORIENTED_EDGE ( 'NONE', *, *, #271, .F. ) ;
#208 = FACE_OUTER_BOUND ( 'NONE', #19, .T. ) ;
#209 = AXIS2_PLACEMENT_3D ( 'NONE', #40, #155, #231 ) ;
#210 = AXIS2_PLACEMENT_3D ( 'NONE', #18, #187, #117 ) ;
#211 = FACE_OUTER_BOUND ( 'NONE', #84, .T. ) ;
#212 = EDGE_LOOP ( 'NONE', ( #14, #207, #165, #33 ) ) ;
#213 = DIRECTION ( 'NONE',  ( -1.000000000000000000, 0.000000000000000000, 0.000000000000000000 ) ) ;
#214 = VERTEX_POINT ( 'NONE', #111 ) ;
#215 = DIRECTION ( 'NONE',  ( 0.000000000000000000, 0.000000000000000000, -1.000000000000000000 ) ) ;
#216 = ORIENTED_EDGE ( 'NONE', *, *, #272, .T. ) ;
#217 = EDGE_CURVE ( 'NONE', #96, #252, #236, .T. ) ;
#218 = ADVANCED_FACE ( 'NONE', ( #35, #134 ), #135, .F. ) ;
#219 = DIRECTION ( 'NONE',  ( 0.000000000000000000, 0.000000000000000000, -1.000000000000000000 ) ) ;
#220 = AXIS2_PLACEMENT_3D ( 'NONE', #258, #68, #243 ) ;
#221 = DIRECTION ( 'NONE',  ( -0.000000000000000000, -1.000000000000000000, -0.000000000000000000 ) ) ;
#222 = MANIFOLD_SOLID_BREP ( 'Revolve1', #250 ) ;
#223 = AXIS2_PLACEMENT_3D ( 'NONE', #301, #174, #273 ) ;
#224 = APPLICATION_PROTOCOL_DEFINITION ( 'draft international standard', 'automotive_design', 1998, #283 ) ;
#225 = CYLINDRICAL_SURFACE ( 'NONE', #151, 4.999999999999998224 ) ;
#226 = APPLICATION_PROTOCOL_DEFINITION ( 'draft international standard', 'automotive_design', 1998, #200 ) ;
#227 = AXIS2_PLACEMENT_3D ( 'NONE', #150, #152, #4 ) ;
#228 = VERTEX_POINT ( 'NONE', #120 ) ;
#229 = ADVANCED_FACE ( 'NONE', ( #50 ), #311, .T. ) ;
#230 = VERTEX_POINT ( 'NONE', #146 ) ;
#231 = DIRECTION ( 'NONE',  ( -1.224646799147353207E-16, 0.000000000000000000, -1.000000000000000000 ) ) ;
#232 = AXIS2_PLACEMENT_3D ( 'NONE', #202, #31, #129 ) ;
#233 = ORIENTED_EDGE ( 'NONE', *, *, #217, .F. ) ;
#234 = DIRECTION ( 'NONE',  ( 0.000000000000000000, 0.000000000000000000, -1.000000000000000000 ) ) ;
#235 = EDGE_LOOP ( 'NONE', ( #123, #132, #190, #186 ) ) ;
#236 = CIRCLE ( 'NONE', #114, 15.00000000000007283 ) ;
#237 = DIRECTION ( 'NONE',  ( -0.000000000000000000, -1.000000000000000000, -0.000000000000000000 ) ) ;
#238 = ORIENTED_EDGE ( 'NONE', *, *, #205, .F. ) ;
#239 = CARTESIAN_POINT ( 'NONE',  ( 0.000000000000000000, 310.0000000000000000, 0.000000000000000000 ) ) ;
#240 = EDGE_CURVE ( 'NONE', #259, #230, #17, .T. ) ;
#241 = ADVANCED_FACE ( 'NONE', ( #211 ), #92, .F. ) ;
#242 = AXIS2_PLACEMENT_3D ( 'NONE', #30, #29, #80 ) ;
#243 = DIRECTION ( 'NONE',  ( 0.000000000000000000, 0.000000000000000000, -1.000000000000000000 ) ) ;
#244 = DIRECTION ( 'NONE',  ( 0.000000000000000000, -0.000000000000000000, 1.000000000000000000 ) ) ;
#245 = DIRECTION ( 'NONE',  ( -0.000000000000000000, -1.000000000000000000, -0.000000000000000000 ) ) ;
#246 = TOROIDAL_SURFACE ( 'NONE', #308, 15.00000000000000000, 10.00000000000000355 ) ;
#247 = DIRECTION ( 'NONE',  ( -0.000000000000000000, -1.000000000000000000, -0.000000000000000000 ) ) ;
#248 = DIRECTION ( 'NONE',  ( 0.000000000000000000, 0.000000000000000000, -1.000000000000000000 ) ) ;
#249 = CIRCLE ( 'NONE', #57, 18.00000000000001066 ) ;
#250 = CLOSED_SHELL ( 'NONE', ( #260, #241, #170, #178, #101, #218, #229, #28, #159, #59 ) ) ;
#251 = DIRECTION ( 'NONE',  ( -0.000000000000000000, -1.000000000000000000, -0.000000000000000000 ) ) ;
#252 = VERTEX_POINT ( 'NONE', #287 ) ;
#253 = CIRCLE ( 'NONE', #173, 10.00000000000000355 ) ;
#254 = PRESENTATION_STYLE_ASSIGNMENT (( #63 ) ) ;
#255 = EDGE_LOOP ( 'NONE', ( #147, #233 ) ) ;
#256 = FILL_AREA_STYLE_COLOUR ( '', #97 ) ;
#257 = EDGE_LOOP ( 'NONE', ( #72, #306, #38, #238 ) ) ;
#258 = CARTESIAN_POINT ( 'NONE',  ( 0.000000000000000000, 370.0000000000000000, 0.000000000000000000 ) ) ;
#259 = VERTEX_POINT ( 'NONE', #43 ) ;
#260 = ADVANCED_FACE ( 'NONE', ( #138 ), #83, .T. ) ;
#261 = VECTOR ( 'NONE', #66, 1000.000000000000000 ) ;
#262 = CARTESIAN_POINT ( 'NONE',  ( 0.000000000000000000, 310.0000000000000000, -15.00000000000000000 ) ) ;
#263 = CIRCLE ( 'NONE', #209, 10.00000000000000355 ) ;
#264 = PRODUCT_DEFINITION_SHAPE ( 'NONE', 'NONE',  #70 ) ;
#265 =( NAMED_UNIT ( * ) SI_UNIT ( $, .STERADIAN. ) SOLID_ANGLE_UNIT ( ) );
#266 = ORIENTED_EDGE ( 'NONE', *, *, #81, .F. ) ;
#267 = AXIS2_PLACEMENT_3D ( 'NONE', #65, #107, #234 ) ;
#268 = DIRECTION ( 'NONE',  ( -0.000000000000000000, -1.000000000000000000, -0.000000000000000000 ) ) ;
#269 = DIRECTION ( 'NONE',  ( -0.000000000000000000, -1.000000000000000000, -0.000000000000000000 ) ) ;
#270 = SURFACE_STYLE_FILL_AREA ( #298 ) ;
#271 = EDGE_CURVE ( 'NONE', #259, #137, #125, .T. ) ;
#272 = EDGE_CURVE ( 'NONE', #252, #230, #304, .T. ) ;
#273 = DIRECTION ( 'NONE',  ( 0.000000000000000000, 0.000000000000000000, -1.000000000000000000 ) ) ;
#274 = COLOUR_RGB ( '',0.7921568627450980005, 0.8196078431372548767, 0.9333333333333333481 ) ;
#275 = CARTESIAN_POINT ( 'NONE',  ( 1.836970198721034322E-15, 300.0000000000000000, 15.00000000000003553 ) ) ;
#276 = SHAPE_DEFINITION_REPRESENTATION ( #264, #90 ) ;
#277 = CARTESIAN_POINT ( 'NONE',  ( 0.000000000000000000, 287.8871698561218864, 0.000000000000000000 ) ) ;
#278 = DIRECTION ( 'NONE',  ( 0.000000000000000000, 0.000000000000000000, -1.000000000000000000 ) ) ;
#279 = MECHANICAL_DESIGN_GEOMETRIC_PRESENTATION_REPRESENTATION (  '', ( #293 ), #45 ) ;
#280 = AXIS2_PLACEMENT_3D ( 'NONE', #51, #245, #105 ) ;
#281 = DIRECTION ( 'NONE',  ( -0.000000000000000000, -1.000000000000000000, -0.000000000000000000 ) ) ;
#282 = ORIENTED_EDGE ( 'NONE', *, *, #272, .F. ) ;
#283 = APPLICATION_CONTEXT ( 'automotive_design' ) ;
#284 = STYLED_ITEM ( 'NONE', ( #300 ), #90 ) ;
#285 = CARTESIAN_POINT ( 'NONE',  ( 0.000000000000000000, 380.0000000000000000, -15.00000000000000000 ) ) ;
#286 = EDGE_LOOP ( 'NONE', ( #177, #37 ) ) ;
#287 = CARTESIAN_POINT ( 'NONE',  ( 0.000000000000000000, 300.0000000000000000, -15.00000000000003553 ) ) ;
#288 = EDGE_CURVE ( 'NONE', #228, #42, #9, .T. ) ;
#289 = EDGE_LOOP ( 'NONE', ( #93, #86, #58, #296 ) ) ;
#290 = CARTESIAN_POINT ( 'NONE',  ( 0.000000000000000000, 380.0000000000000000, -18.00000000000001066 ) ) ;
#291 = EDGE_LOOP ( 'NONE', ( #62, #143 ) ) ;
#292 = AXIS2_PLACEMENT_3D ( 'NONE', #176, #180, #303 ) ;
#293 = STYLED_ITEM ( 'NONE', ( #254 ), #222 ) ;
#294 = DIRECTION ( 'NONE',  ( -0.000000000000000000, -1.000000000000000000, -0.000000000000000000 ) ) ;
#295 = DIRECTION ( 'NONE',  ( 0.000000000000000000, 0.000000000000000000, -1.000000000000000000 ) ) ;
#296 = ORIENTED_EDGE ( 'NONE', *, *, #297, .F. ) ;
#297 = EDGE_CURVE ( 'NONE', #259, #156, #253, .T. ) ;
#298 = FILL_AREA_STYLE ('',( #55 ) ) ;
#299 =( GEOMETRIC_REPRESENTATION_CONTEXT ( 3 ) GLOBAL_UNCERTAINTY_ASSIGNED_CONTEXT ( ( #141 ) ) GLOBAL_UNIT_ASSIGNED_CONTEXT ( ( #71, #191, #102 ) ) REPRESENTATION_CONTEXT ( 'NONE', 'WORKASPACE' ) );
#300 = PRESENTATION_STYLE_ASSIGNMENT (( #52 ) ) ;
#301 = CARTESIAN_POINT ( 'NONE',  ( 0.000000000000000000, 300.0000000000000000, 0.000000000000000000 ) ) ;
#302 = DIRECTION ( 'NONE',  ( -0.000000000000000000, -1.000000000000000000, -0.000000000000000000 ) ) ;
#303 = DIRECTION ( 'NONE',  ( 0.000000000000000000, 0.000000000000000000, -1.000000000000000000 ) ) ;
#304 = CIRCLE ( 'NONE', #74, 10.00000000000000355 ) ;
#305 = FILL_AREA_STYLE ('',( #256 ) ) ;
#306 = ORIENTED_EDGE ( 'NONE', *, *, #3, .T. ) ;
#307 = EDGE_CURVE ( 'NONE', #137, #214, #124, .T. ) ;
#308 = AXIS2_PLACEMENT_3D ( 'NONE', #157, #82, #278 ) ;
#309 = CARTESIAN_POINT ( 'NONE',  ( 0.000000000000000000, 300.0000000000000000, 0.000000000000000000 ) ) ;
#310 = CARTESIAN_POINT ( 'NONE',  ( 0.000000000000000000, 300.0000000000000000, 0.000000000000000000 ) ) ;
#311 = TOROIDAL_SURFACE ( 'NONE', #220, 15.00000000000000000, 10.00000000000000355 ) ;
#312 = CARTESIAN_POINT ( 'NONE',  ( 0.000000000000000000, 287.8871698561218864, 0.000000000000000000 ) ) ;
#313 = DIRECTION ( 'NONE',  ( 0.000000000000000000, 0.000000000000000000, 1.000000000000000000 ) ) ;
#314 = UNCERTAINTY_MEASURE_WITH_UNIT (LENGTH_MEASURE( 1.000000000000000082E-05 ), #27, 'distance_accuracy_value', 'NONE');
#315 = DIRECTION ( 'NONE',  ( -1.000000000000000000, 0.000000000000000000, 0.000000000000000000 ) ) ;
#316 = PRODUCT_DEFINITION_FORMATION_WITH_SPECIFIED_SOURCE ( 'ANY', '', #115, .NOT_KNOWN. ) ;
#317 = VERTEX_POINT ( 'NONE', #290 ) ;
#318 = UNCERTAINTY_MEASURE_WITH_UNIT (LENGTH_MEASURE( 1.000000000000000082E-05 ), #41, 'distance_accuracy_value', 'NONE');
ENDSEC;
END-ISO-10303-21;
