ISO-10303-21;
HEADER;
/* Generated by software containing ST-Developer
 * from STEP Tools, Inc. (www.steptools.com) 
 */
/* OPTION: using custom renumber hook */

FILE_DESCRIPTION(
/* description */ ('STEP AP242',
'CAx-IF Rec.Pracs.---Representation and Presentation of Product Manufa
cturing Information (PMI)---4.0---2014-10-13',
'CAx-IF Rec.Pracs.---3D Tessellated Geometry---0.4---2014-09-14','2;1'),

/* implementation_level */ '2;1');

FILE_NAME(
/* name */ '65e9dad51aea92541e50b85d',
/* time_stamp */ '2024-03-07T15:18:46Z',
/* author */ (''),
/* organization */ (''),
/* preprocessor_version */ 'ST-DEVELOPER v19.4',
/* originating_system */ '  ',
/* authorisation */ '  ');

FILE_SCHEMA (('AP242_MANAGED_MODEL_BASED_3D_ENGINEERING_MIM_LF { 1 0 10303 442 1 1 4 }'));
ENDSEC;

DATA;
#10=SHAPE_REPRESENTATION_RELATIONSHIP('','',#177,#11);
#11=ADVANCED_BREP_SHAPE_REPRESENTATION('',(#175),#277);
#12=CYLINDRICAL_SURFACE('',#189,0.0055);
#13=CIRCLE('',#184,0.0055);
#14=CIRCLE('',#187,0.0055);
#15=ORIENTED_EDGE('',*,*,#55,.F.);
#16=ORIENTED_EDGE('',*,*,#56,.F.);
#17=ORIENTED_EDGE('',*,*,#57,.T.);
#18=ORIENTED_EDGE('',*,*,#58,.T.);
#19=ORIENTED_EDGE('',*,*,#59,.T.);
#20=ORIENTED_EDGE('',*,*,#60,.F.);
#21=ORIENTED_EDGE('',*,*,#61,.F.);
#22=ORIENTED_EDGE('',*,*,#62,.T.);
#23=ORIENTED_EDGE('',*,*,#63,.T.);
#24=ORIENTED_EDGE('',*,*,#56,.T.);
#25=ORIENTED_EDGE('',*,*,#64,.T.);
#26=ORIENTED_EDGE('',*,*,#65,.F.);
#27=ORIENTED_EDGE('',*,*,#66,.F.);
#28=ORIENTED_EDGE('',*,*,#60,.T.);
#29=ORIENTED_EDGE('',*,*,#67,.F.);
#30=ORIENTED_EDGE('',*,*,#58,.F.);
#31=ORIENTED_EDGE('',*,*,#68,.F.);
#32=ORIENTED_EDGE('',*,*,#69,.F.);
#33=ORIENTED_EDGE('',*,*,#70,.T.);
#34=ORIENTED_EDGE('',*,*,#65,.T.);
#35=ORIENTED_EDGE('',*,*,#71,.T.);
#36=ORIENTED_EDGE('',*,*,#55,.T.);
#37=ORIENTED_EDGE('',*,*,#67,.T.);
#38=ORIENTED_EDGE('',*,*,#64,.F.);
#39=ORIENTED_EDGE('',*,*,#59,.F.);
#40=ORIENTED_EDGE('',*,*,#72,.F.);
#41=ORIENTED_EDGE('',*,*,#62,.F.);
#42=ORIENTED_EDGE('',*,*,#73,.T.);
#43=ORIENTED_EDGE('',*,*,#69,.T.);
#44=ORIENTED_EDGE('',*,*,#74,.F.);
#45=ORIENTED_EDGE('',*,*,#70,.F.);
#46=ORIENTED_EDGE('',*,*,#73,.F.);
#47=ORIENTED_EDGE('',*,*,#61,.T.);
#48=ORIENTED_EDGE('',*,*,#66,.T.);
#49=ORIENTED_EDGE('',*,*,#57,.F.);
#50=ORIENTED_EDGE('',*,*,#63,.F.);
#51=ORIENTED_EDGE('',*,*,#72,.T.);
#52=ORIENTED_EDGE('',*,*,#68,.T.);
#53=ORIENTED_EDGE('',*,*,#74,.T.);
#54=ORIENTED_EDGE('',*,*,#71,.F.);
#55=EDGE_CURVE('',#75,#76,#89,.T.);
#56=EDGE_CURVE('',#77,#75,#90,.T.);
#57=EDGE_CURVE('',#77,#78,#91,.T.);
#58=EDGE_CURVE('',#78,#76,#92,.T.);
#59=EDGE_CURVE('',#75,#79,#93,.T.);
#60=EDGE_CURVE('',#80,#79,#94,.T.);
#61=EDGE_CURVE('',#81,#80,#95,.T.);
#62=EDGE_CURVE('',#81,#82,#96,.T.);
#63=EDGE_CURVE('',#82,#77,#97,.T.);
#64=EDGE_CURVE('',#79,#83,#98,.T.);
#65=EDGE_CURVE('',#84,#83,#99,.T.);
#66=EDGE_CURVE('',#80,#84,#100,.T.);
#67=EDGE_CURVE('',#76,#83,#101,.T.);
#68=EDGE_CURVE('',#85,#78,#102,.T.);
#69=EDGE_CURVE('',#86,#85,#103,.T.);
#70=EDGE_CURVE('',#86,#84,#104,.T.);
#71=EDGE_CURVE('',#87,#87,#13,.T.);
#72=EDGE_CURVE('',#82,#85,#105,.T.);
#73=EDGE_CURVE('',#81,#86,#106,.T.);
#74=EDGE_CURVE('',#88,#88,#14,.T.);
#75=VERTEX_POINT('',#235);
#76=VERTEX_POINT('',#236);
#77=VERTEX_POINT('',#238);
#78=VERTEX_POINT('',#240);
#79=VERTEX_POINT('',#244);
#80=VERTEX_POINT('',#246);
#81=VERTEX_POINT('',#248);
#82=VERTEX_POINT('',#250);
#83=VERTEX_POINT('',#254);
#84=VERTEX_POINT('',#256);
#85=VERTEX_POINT('',#261);
#86=VERTEX_POINT('',#263);
#87=VERTEX_POINT('',#267);
#88=VERTEX_POINT('',#273);
#89=LINE('',#234,#107);
#90=LINE('',#237,#108);
#91=LINE('',#239,#109);
#92=LINE('',#241,#110);
#93=LINE('',#243,#111);
#94=LINE('',#245,#112);
#95=LINE('',#247,#113);
#96=LINE('',#249,#114);
#97=LINE('',#251,#115);
#98=LINE('',#253,#116);
#99=LINE('',#255,#117);
#100=LINE('',#257,#118);
#101=LINE('',#259,#119);
#102=LINE('',#260,#120);
#103=LINE('',#262,#121);
#104=LINE('',#264,#122);
#105=LINE('',#269,#123);
#106=LINE('',#270,#124);
#107=VECTOR('',#194,1.);
#108=VECTOR('',#195,1.);
#109=VECTOR('',#196,1.);
#110=VECTOR('',#197,1.);
#111=VECTOR('',#200,1.);
#112=VECTOR('',#201,1.);
#113=VECTOR('',#202,1.);
#114=VECTOR('',#203,1.);
#115=VECTOR('',#204,1.);
#116=VECTOR('',#207,1.);
#117=VECTOR('',#208,1.);
#118=VECTOR('',#209,1.);
#119=VECTOR('',#212,1.);
#120=VECTOR('',#213,1.);
#121=VECTOR('',#214,1.);
#122=VECTOR('',#215,1.);
#123=VECTOR('',#222,1.);
#124=VECTOR('',#223,1.);
#125=EDGE_LOOP('',(#15,#16,#17,#18));
#126=EDGE_LOOP('',(#19,#20,#21,#22,#23,#24));
#127=EDGE_LOOP('',(#25,#26,#27,#28));
#128=EDGE_LOOP('',(#29,#30,#31,#32,#33,#34));
#129=EDGE_LOOP('',(#35));
#130=EDGE_LOOP('',(#36,#37,#38,#39));
#131=EDGE_LOOP('',(#40,#41,#42,#43));
#132=EDGE_LOOP('',(#44));
#133=EDGE_LOOP('',(#45,#46,#47,#48));
#134=EDGE_LOOP('',(#49,#50,#51,#52));
#135=EDGE_LOOP('',(#53));
#136=EDGE_LOOP('',(#54));
#137=FACE_BOUND('',#125,.T.);
#138=FACE_BOUND('',#126,.T.);
#139=FACE_BOUND('',#127,.T.);
#140=FACE_BOUND('',#128,.T.);
#141=FACE_BOUND('',#129,.T.);
#142=FACE_BOUND('',#130,.T.);
#143=FACE_BOUND('',#131,.T.);
#144=FACE_BOUND('',#132,.T.);
#145=FACE_BOUND('',#133,.T.);
#146=FACE_BOUND('',#134,.T.);
#147=FACE_BOUND('',#135,.T.);
#148=FACE_BOUND('',#136,.T.);
#149=PLANE('',#179);
#150=PLANE('',#180);
#151=PLANE('',#181);
#152=PLANE('',#182);
#153=PLANE('',#183);
#154=PLANE('',#185);
#155=PLANE('',#186);
#156=PLANE('',#188);
#157=ADVANCED_FACE('',(#137),#149,.T.);
#158=ADVANCED_FACE('',(#138),#150,.F.);
#159=ADVANCED_FACE('',(#139),#151,.F.);
#160=ADVANCED_FACE('',(#140),#152,.T.);
#161=ADVANCED_FACE('',(#141,#142),#153,.F.);
#162=ADVANCED_FACE('',(#143),#154,.T.);
#163=ADVANCED_FACE('',(#144,#145),#155,.T.);
#164=ADVANCED_FACE('',(#146),#156,.F.);
#165=ADVANCED_FACE('',(#147,#148),#12,.F.);
#166=CLOSED_SHELL('',(#157,#158,#159,#160,#161,#162,#163,#164,#165));
#167=STYLED_ITEM('',(#168),#175);
#168=PRESENTATION_STYLE_ASSIGNMENT((#169));
#169=SURFACE_STYLE_USAGE(.BOTH.,#170);
#170=SURFACE_SIDE_STYLE('',(#171));
#171=SURFACE_STYLE_FILL_AREA(#172);
#172=FILL_AREA_STYLE('',(#173));
#173=FILL_AREA_STYLE_COLOUR('',#174);
#174=COLOUR_RGB('',0.850980392156863,0.756862745098039,0.866666666666667);
#175=MANIFOLD_SOLID_BREP('Part 1',#166);
#176=SHAPE_DEFINITION_REPRESENTATION(#282,#177);
#177=SHAPE_REPRESENTATION('Part 1',(#178),#277);
#178=AXIS2_PLACEMENT_3D('',#232,#190,#191);
#179=AXIS2_PLACEMENT_3D('',#233,#192,#193);
#180=AXIS2_PLACEMENT_3D('',#242,#198,#199);
#181=AXIS2_PLACEMENT_3D('',#252,#205,#206);
#182=AXIS2_PLACEMENT_3D('',#258,#210,#211);
#183=AXIS2_PLACEMENT_3D('',#265,#216,#217);
#184=AXIS2_PLACEMENT_3D('',#266,#218,#219);
#185=AXIS2_PLACEMENT_3D('',#268,#220,#221);
#186=AXIS2_PLACEMENT_3D('',#271,#224,#225);
#187=AXIS2_PLACEMENT_3D('',#272,#226,#227);
#188=AXIS2_PLACEMENT_3D('',#274,#228,#229);
#189=AXIS2_PLACEMENT_3D('',#275,#230,#231);
#190=DIRECTION('',(0.,0.,1.));
#191=DIRECTION('',(1.,0.,0.));
#192=DIRECTION('',(-1.,0.,0.));
#193=DIRECTION('',(0.,0.,1.));
#194=DIRECTION('',(0.,0.,1.));
#195=DIRECTION('',(0.,1.,0.));
#196=DIRECTION('',(0.,0.,1.));
#197=DIRECTION('',(0.,1.,0.));
#198=DIRECTION('',(0.,0.,1.));
#199=DIRECTION('',(1.,0.,0.));
#200=DIRECTION('',(1.,0.,0.));
#201=DIRECTION('',(0.,1.,0.));
#202=DIRECTION('',(1.,0.,0.));
#203=DIRECTION('',(0.,1.,0.));
#204=DIRECTION('',(1.,0.,0.));
#205=DIRECTION('',(-1.,0.,0.));
#206=DIRECTION('',(0.,0.,1.));
#207=DIRECTION('',(0.,0.,1.));
#208=DIRECTION('',(0.,1.,0.));
#209=DIRECTION('',(0.,0.,1.));
#210=DIRECTION('',(0.,0.,1.));
#211=DIRECTION('',(1.,0.,0.));
#212=DIRECTION('',(1.,0.,0.));
#213=DIRECTION('',(1.,0.,0.));
#214=DIRECTION('',(0.,1.,0.));
#215=DIRECTION('',(1.,0.,0.));
#216=DIRECTION('',(0.,-1.,0.));
#217=DIRECTION('',(1.,0.,0.));
#218=DIRECTION('',(0.,-1.,0.));
#219=DIRECTION('',(0.,0.,-1.));
#220=DIRECTION('',(-1.,0.,-1.38777878078145E-16));
#221=DIRECTION('',(-1.38777878078145E-16,0.,1.));
#222=DIRECTION('',(-1.38777878078145E-16,0.,1.));
#223=DIRECTION('',(-1.38777878078145E-16,0.,1.));
#224=DIRECTION('',(0.,-1.,0.));
#225=DIRECTION('',(1.,0.,0.));
#226=DIRECTION('',(0.,-1.,0.));
#227=DIRECTION('',(0.,0.,-1.));
#228=DIRECTION('',(0.,-1.,0.));
#229=DIRECTION('',(1.,0.,0.));
#230=DIRECTION('',(0.,-1.,0.));
#231=DIRECTION('',(0.,0.,-1.));
#232=CARTESIAN_POINT('',(0.,0.,0.));
#233=CARTESIAN_POINT('',(0.,-0.005,0.025));
#234=CARTESIAN_POINT('',(0.,0.,0.025));
#235=CARTESIAN_POINT('',(0.,0.,0.));
#236=CARTESIAN_POINT('',(-1.04083408558608E-17,0.,0.05));
#237=CARTESIAN_POINT('',(0.,-0.005,0.));
#238=CARTESIAN_POINT('',(-3.46944695195361E-18,-0.005,0.));
#239=CARTESIAN_POINT('',(0.,-0.005,0.025));
#240=CARTESIAN_POINT('',(-1.04083408558608E-17,-0.005,0.05));
#241=CARTESIAN_POINT('',(-1.04083408558608E-17,-0.005,0.05));
#242=CARTESIAN_POINT('',(0.025,-0.005,0.));
#243=CARTESIAN_POINT('',(0.025,0.,0.));
#244=CARTESIAN_POINT('',(0.05,0.,0.));
#245=CARTESIAN_POINT('',(0.05,-0.005,0.));
#246=CARTESIAN_POINT('',(0.05,-0.01,0.));
#247=CARTESIAN_POINT('',(0.025,-0.01,0.));
#248=CARTESIAN_POINT('',(-0.02,-0.01,0.));
#249=CARTESIAN_POINT('',(-0.02,-0.01,0.));
#250=CARTESIAN_POINT('',(-0.02,-0.005,0.));
#251=CARTESIAN_POINT('',(0.025,-0.005,0.));
#252=CARTESIAN_POINT('',(0.05,-0.005,0.025));
#253=CARTESIAN_POINT('',(0.05,0.,0.025));
#254=CARTESIAN_POINT('',(0.05,0.,0.05));
#255=CARTESIAN_POINT('',(0.05,-0.005,0.05));
#256=CARTESIAN_POINT('',(0.05,-0.01,0.05));
#257=CARTESIAN_POINT('',(0.05,-0.01,0.025));
#258=CARTESIAN_POINT('',(0.025,-0.005,0.05));
#259=CARTESIAN_POINT('',(0.025,0.,0.05));
#260=CARTESIAN_POINT('',(0.025,-0.005,0.05));
#261=CARTESIAN_POINT('',(-0.02,-0.005,0.05));
#262=CARTESIAN_POINT('',(-0.02,-0.01,0.05));
#263=CARTESIAN_POINT('',(-0.02,-0.01,0.05));
#264=CARTESIAN_POINT('',(0.025,-0.01,0.05));
#265=CARTESIAN_POINT('',(0.025,0.,0.025));
#266=CARTESIAN_POINT('',(0.03,0.,0.025));
#267=CARTESIAN_POINT('',(0.03,0.,0.0195));
#268=CARTESIAN_POINT('',(-0.02,-0.01,0.025));
#269=CARTESIAN_POINT('',(-0.02,-0.005,0.025));
#270=CARTESIAN_POINT('',(-0.02,-0.01,0.025));
#271=CARTESIAN_POINT('',(0.015,-0.01,0.025));
#272=CARTESIAN_POINT('',(0.03,-0.01,0.025));
#273=CARTESIAN_POINT('',(0.03,-0.01,0.0195));
#274=CARTESIAN_POINT('',(0.015,-0.005,0.025));
#275=CARTESIAN_POINT('',(0.03,0.015,0.025));
#276=MECHANICAL_DESIGN_GEOMETRIC_PRESENTATION_REPRESENTATION('',(#167),
#277);
#277=(
GEOMETRIC_REPRESENTATION_CONTEXT(3)
GLOBAL_UNCERTAINTY_ASSIGNED_CONTEXT((#278))
GLOBAL_UNIT_ASSIGNED_CONTEXT((#281,#280,#279))
REPRESENTATION_CONTEXT('Part 1','TOP_LEVEL_ASSEMBLY_PART')
);
#278=UNCERTAINTY_MEASURE_WITH_UNIT(LENGTH_MEASURE(5.E-6),#281,
'DISTANCE_ACCURACY_VALUE','Maximum Tolerance applied to model');
#279=(
NAMED_UNIT(*)
SI_UNIT($,.STERADIAN.)
SOLID_ANGLE_UNIT()
);
#280=(
NAMED_UNIT(*)
PLANE_ANGLE_UNIT()
SI_UNIT($,.RADIAN.)
);
#281=(
LENGTH_UNIT()
NAMED_UNIT(*)
SI_UNIT($,.METRE.)
);
#282=PRODUCT_DEFINITION_SHAPE('','',#283);
#283=PRODUCT_DEFINITION('','',#285,#284);
#284=PRODUCT_DEFINITION_CONTEXT('',#291,'design');
#285=PRODUCT_DEFINITION_FORMATION_WITH_SPECIFIED_SOURCE('','',#287,
 .NOT_KNOWN.);
#286=PRODUCT_RELATED_PRODUCT_CATEGORY('','',(#287));
#287=PRODUCT('Part 1','Part 1','Part 1',(#289));
#288=PRODUCT_CATEGORY('','');
#289=PRODUCT_CONTEXT('',#291,'mechanical');
#290=APPLICATION_PROTOCOL_DEFINITION('international standard',
'ap242_managed_model_based_3d_engineering',2011,#291);
#291=APPLICATION_CONTEXT('managed model based 3d engineering');
ENDSEC;
END-ISO-10303-21;
