ISO-10303-21;
HEADER;
/* Generated by software containing ST-Developer
 * from STEP Tools, Inc. (www.steptools.com) 
 */

FILE_DESCRIPTION(
/* description */ (''),
/* implementation_level */ '2;1');

FILE_NAME(
/* name */ 'fixation rotule.step',
/* time_stamp */ '2024-03-05T21:32:39+01:00',
/* author */ (''),
/* organization */ (''),
/* preprocessor_version */ 'ST-DEVELOPER v20',
/* originating_system */ 'Autodesk Translation Framework v12.20.1.177',

/* authorisation */ '');

FILE_SCHEMA (('AUTOMOTIVE_DESIGN { 1 0 10303 214 3 1 1 }'));
ENDSEC;

DATA;
#10=MECHANICAL_DESIGN_GEOMETRIC_PRESENTATION_REPRESENTATION('',(#17),#581);
#11=ITEM_DEFINED_TRANSFORMATION($,$,#346,#381);
#12=(
REPRESENTATION_RELATIONSHIP($,$,#592,#591)
REPRESENTATION_RELATIONSHIP_WITH_TRANSFORMATION(#11)
SHAPE_REPRESENTATION_RELATIONSHIP()
);
#13=CONTEXT_DEPENDENT_SHAPE_REPRESENTATION(#12,#590);
#14=NEXT_ASSEMBLY_USAGE_OCCURRENCE('ROTULE DOUBLE:1','ROTULE DOUBLE:1',
'ROTULE DOUBLE:1',#594,#595,'ROTULE DOUBLE:1');
#15=SHAPE_REPRESENTATION_RELATIONSHIP('SRR','None',#592,#16);
#16=ADVANCED_BREP_SHAPE_REPRESENTATION('',(#18),#580);
#17=STYLED_ITEM('',(#607),#18);
#18=MANIFOLD_SOLID_BREP('Corps1',#332);
#19=FACE_BOUND('',#60,.T.);
#20=FACE_BOUND('',#62,.T.);
#21=FACE_BOUND('',#67,.T.);
#22=FACE_BOUND('',#72,.T.);
#23=FACE_BOUND('',#79,.T.);
#24=PLANE('',#353);
#25=PLANE('',#354);
#26=PLANE('',#356);
#27=PLANE('',#358);
#28=PLANE('',#363);
#29=PLANE('',#367);
#30=PLANE('',#374);
#31=PLANE('',#375);
#32=PLANE('',#376);
#33=PLANE('',#377);
#34=PLANE('',#378);
#35=PLANE('',#379);
#36=PLANE('',#380);
#37=FACE_OUTER_BOUND('',#56,.T.);
#38=FACE_OUTER_BOUND('',#57,.T.);
#39=FACE_OUTER_BOUND('',#58,.T.);
#40=FACE_OUTER_BOUND('',#59,.T.);
#41=FACE_OUTER_BOUND('',#61,.T.);
#42=FACE_OUTER_BOUND('',#63,.T.);
#43=FACE_OUTER_BOUND('',#64,.T.);
#44=FACE_OUTER_BOUND('',#65,.T.);
#45=FACE_OUTER_BOUND('',#66,.T.);
#46=FACE_OUTER_BOUND('',#68,.T.);
#47=FACE_OUTER_BOUND('',#69,.T.);
#48=FACE_OUTER_BOUND('',#70,.T.);
#49=FACE_OUTER_BOUND('',#71,.T.);
#50=FACE_OUTER_BOUND('',#73,.T.);
#51=FACE_OUTER_BOUND('',#74,.T.);
#52=FACE_OUTER_BOUND('',#75,.T.);
#53=FACE_OUTER_BOUND('',#76,.T.);
#54=FACE_OUTER_BOUND('',#77,.T.);
#55=FACE_OUTER_BOUND('',#78,.T.);
#56=EDGE_LOOP('',(#221,#222,#223,#224));
#57=EDGE_LOOP('',(#225,#226,#227,#228));
#58=EDGE_LOOP('',(#229,#230,#231,#232));
#59=EDGE_LOOP('',(#233,#234,#235,#236));
#60=EDGE_LOOP('',(#237));
#61=EDGE_LOOP('',(#238,#239,#240,#241));
#62=EDGE_LOOP('',(#242));
#63=EDGE_LOOP('',(#243,#244,#245,#246,#247,#248,#249,#250,#251));
#64=EDGE_LOOP('',(#252,#253,#254,#255));
#65=EDGE_LOOP('',(#256,#257,#258,#259));
#66=EDGE_LOOP('',(#260,#261,#262,#263,#264));
#67=EDGE_LOOP('',(#265));
#68=EDGE_LOOP('',(#266,#267,#268,#269));
#69=EDGE_LOOP('',(#270));
#70=EDGE_LOOP('',(#271,#272,#273,#274,#275,#276,#277));
#71=EDGE_LOOP('',(#278));
#72=EDGE_LOOP('',(#279));
#73=EDGE_LOOP('',(#280,#281,#282));
#74=EDGE_LOOP('',(#283,#284,#285));
#75=EDGE_LOOP('',(#286,#287,#288));
#76=EDGE_LOOP('',(#289,#290,#291));
#77=EDGE_LOOP('',(#292,#293,#294,#295,#296,#297,#298,#299,#300));
#78=EDGE_LOOP('',(#301,#302,#303,#304,#305));
#79=EDGE_LOOP('',(#306));
#80=LINE('',#490,#108);
#81=LINE('',#496,#109);
#82=LINE('',#501,#110);
#83=LINE('',#503,#111);
#84=LINE('',#505,#112);
#85=LINE('',#506,#113);
#86=LINE('',#511,#114);
#87=LINE('',#512,#115);
#88=LINE('',#517,#116);
#89=LINE('',#518,#117);
#90=LINE('',#521,#118);
#91=LINE('',#523,#119);
#92=LINE('',#525,#120);
#93=LINE('',#527,#121);
#94=LINE('',#529,#122);
#95=LINE('',#530,#123);
#96=LINE('',#533,#124);
#97=LINE('',#538,#125);
#98=LINE('',#541,#126);
#99=LINE('',#543,#127);
#100=LINE('',#544,#128);
#101=LINE('',#549,#129);
#102=LINE('',#556,#130);
#103=LINE('',#565,#131);
#104=LINE('',#566,#132);
#105=LINE('',#568,#133);
#106=LINE('',#571,#134);
#107=LINE('',#573,#135);
#108=VECTOR('',#390,3.);
#109=VECTOR('',#397,2.5);
#110=VECTOR('',#402,10.);
#111=VECTOR('',#403,10.);
#112=VECTOR('',#404,10.);
#113=VECTOR('',#405,10.);
#114=VECTOR('',#410,10.);
#115=VECTOR('',#411,10.);
#116=VECTOR('',#416,10.);
#117=VECTOR('',#417,10.);
#118=VECTOR('',#420,10.);
#119=VECTOR('',#421,10.);
#120=VECTOR('',#422,10.);
#121=VECTOR('',#423,10.);
#122=VECTOR('',#424,10.);
#123=VECTOR('',#425,10.);
#124=VECTOR('',#428,10.);
#125=VECTOR('',#435,10.);
#126=VECTOR('',#438,10.);
#127=VECTOR('',#439,10.);
#128=VECTOR('',#440,10.);
#129=VECTOR('',#445,2.5);
#130=VECTOR('',#454,15.);
#131=VECTOR('',#467,10.);
#132=VECTOR('',#468,10.);
#133=VECTOR('',#471,10.);
#134=VECTOR('',#476,10.);
#135=VECTOR('',#479,10.);
#136=CIRCLE('',#348,3.);
#137=CIRCLE('',#349,3.);
#138=CIRCLE('',#351,2.5);
#139=CIRCLE('',#352,2.5);
#140=CIRCLE('',#355,15.);
#141=CIRCLE('',#357,15.);
#142=CIRCLE('',#360,15.);
#143=CIRCLE('',#362,15.);
#144=CIRCLE('',#365,2.5);
#145=CIRCLE('',#366,2.5);
#146=CIRCLE('',#369,15.);
#147=CIRCLE('',#370,15.);
#148=CIRCLE('',#371,15.);
#149=CIRCLE('',#372,15.);
#150=CIRCLE('',#373,15.);
#151=VERTEX_POINT('',#487);
#152=VERTEX_POINT('',#489);
#153=VERTEX_POINT('',#493);
#154=VERTEX_POINT('',#495);
#155=VERTEX_POINT('',#499);
#156=VERTEX_POINT('',#500);
#157=VERTEX_POINT('',#502);
#158=VERTEX_POINT('',#504);
#159=VERTEX_POINT('',#508);
#160=VERTEX_POINT('',#509);
#161=VERTEX_POINT('',#514);
#162=VERTEX_POINT('',#515);
#163=VERTEX_POINT('',#520);
#164=VERTEX_POINT('',#522);
#165=VERTEX_POINT('',#524);
#166=VERTEX_POINT('',#526);
#167=VERTEX_POINT('',#528);
#168=VERTEX_POINT('',#532);
#169=VERTEX_POINT('',#536);
#170=VERTEX_POINT('',#540);
#171=VERTEX_POINT('',#542);
#172=VERTEX_POINT('',#546);
#173=VERTEX_POINT('',#548);
#174=VERTEX_POINT('',#553);
#175=VERTEX_POINT('',#555);
#176=VERTEX_POINT('',#559);
#177=VERTEX_POINT('',#564);
#178=EDGE_CURVE('',#151,#151,#136,.T.);
#179=EDGE_CURVE('',#151,#152,#80,.T.);
#180=EDGE_CURVE('',#152,#152,#137,.T.);
#181=EDGE_CURVE('',#153,#153,#138,.T.);
#182=EDGE_CURVE('',#153,#154,#81,.T.);
#183=EDGE_CURVE('',#154,#154,#139,.T.);
#184=EDGE_CURVE('',#155,#156,#82,.T.);
#185=EDGE_CURVE('',#157,#156,#83,.T.);
#186=EDGE_CURVE('',#157,#158,#84,.T.);
#187=EDGE_CURVE('',#155,#158,#85,.T.);
#188=EDGE_CURVE('',#159,#160,#140,.T.);
#189=EDGE_CURVE('',#158,#159,#86,.T.);
#190=EDGE_CURVE('',#160,#157,#87,.T.);
#191=EDGE_CURVE('',#161,#162,#141,.T.);
#192=EDGE_CURVE('',#156,#161,#88,.T.);
#193=EDGE_CURVE('',#162,#155,#89,.T.);
#194=EDGE_CURVE('',#159,#163,#90,.T.);
#195=EDGE_CURVE('',#164,#163,#91,.T.);
#196=EDGE_CURVE('',#164,#165,#92,.T.);
#197=EDGE_CURVE('',#165,#166,#93,.T.);
#198=EDGE_CURVE('',#166,#167,#94,.T.);
#199=EDGE_CURVE('',#167,#162,#95,.T.);
#200=EDGE_CURVE('',#160,#168,#96,.T.);
#201=EDGE_CURVE('',#163,#168,#142,.T.);
#202=EDGE_CURVE('',#169,#167,#143,.T.);
#203=EDGE_CURVE('',#169,#161,#97,.T.);
#204=EDGE_CURVE('',#170,#168,#98,.T.);
#205=EDGE_CURVE('',#170,#171,#99,.T.);
#206=EDGE_CURVE('',#171,#164,#100,.T.);
#207=EDGE_CURVE('',#172,#172,#144,.T.);
#208=EDGE_CURVE('',#172,#173,#101,.T.);
#209=EDGE_CURVE('',#173,#173,#145,.T.);
#210=EDGE_CURVE('',#174,#174,#146,.T.);
#211=EDGE_CURVE('',#174,#175,#102,.T.);
#212=EDGE_CURVE('',#165,#175,#147,.T.);
#213=EDGE_CURVE('',#171,#165,#148,.T.);
#214=EDGE_CURVE('',#176,#171,#149,.T.);
#215=EDGE_CURVE('',#175,#176,#150,.T.);
#216=EDGE_CURVE('',#177,#176,#103,.T.);
#217=EDGE_CURVE('',#175,#177,#104,.T.);
#218=EDGE_CURVE('',#176,#170,#105,.T.);
#219=EDGE_CURVE('',#166,#175,#106,.T.);
#220=EDGE_CURVE('',#177,#169,#107,.T.);
#221=ORIENTED_EDGE('',*,*,#178,.F.);
#222=ORIENTED_EDGE('',*,*,#179,.T.);
#223=ORIENTED_EDGE('',*,*,#180,.F.);
#224=ORIENTED_EDGE('',*,*,#179,.F.);
#225=ORIENTED_EDGE('',*,*,#181,.F.);
#226=ORIENTED_EDGE('',*,*,#182,.T.);
#227=ORIENTED_EDGE('',*,*,#183,.F.);
#228=ORIENTED_EDGE('',*,*,#182,.F.);
#229=ORIENTED_EDGE('',*,*,#184,.T.);
#230=ORIENTED_EDGE('',*,*,#185,.F.);
#231=ORIENTED_EDGE('',*,*,#186,.T.);
#232=ORIENTED_EDGE('',*,*,#187,.F.);
#233=ORIENTED_EDGE('',*,*,#188,.F.);
#234=ORIENTED_EDGE('',*,*,#189,.F.);
#235=ORIENTED_EDGE('',*,*,#186,.F.);
#236=ORIENTED_EDGE('',*,*,#190,.F.);
#237=ORIENTED_EDGE('',*,*,#180,.T.);
#238=ORIENTED_EDGE('',*,*,#191,.F.);
#239=ORIENTED_EDGE('',*,*,#192,.F.);
#240=ORIENTED_EDGE('',*,*,#184,.F.);
#241=ORIENTED_EDGE('',*,*,#193,.F.);
#242=ORIENTED_EDGE('',*,*,#181,.T.);
#243=ORIENTED_EDGE('',*,*,#193,.T.);
#244=ORIENTED_EDGE('',*,*,#187,.T.);
#245=ORIENTED_EDGE('',*,*,#189,.T.);
#246=ORIENTED_EDGE('',*,*,#194,.T.);
#247=ORIENTED_EDGE('',*,*,#195,.F.);
#248=ORIENTED_EDGE('',*,*,#196,.T.);
#249=ORIENTED_EDGE('',*,*,#197,.T.);
#250=ORIENTED_EDGE('',*,*,#198,.T.);
#251=ORIENTED_EDGE('',*,*,#199,.T.);
#252=ORIENTED_EDGE('',*,*,#188,.T.);
#253=ORIENTED_EDGE('',*,*,#200,.T.);
#254=ORIENTED_EDGE('',*,*,#201,.F.);
#255=ORIENTED_EDGE('',*,*,#194,.F.);
#256=ORIENTED_EDGE('',*,*,#191,.T.);
#257=ORIENTED_EDGE('',*,*,#199,.F.);
#258=ORIENTED_EDGE('',*,*,#202,.F.);
#259=ORIENTED_EDGE('',*,*,#203,.T.);
#260=ORIENTED_EDGE('',*,*,#201,.T.);
#261=ORIENTED_EDGE('',*,*,#204,.F.);
#262=ORIENTED_EDGE('',*,*,#205,.T.);
#263=ORIENTED_EDGE('',*,*,#206,.T.);
#264=ORIENTED_EDGE('',*,*,#195,.T.);
#265=ORIENTED_EDGE('',*,*,#178,.T.);
#266=ORIENTED_EDGE('',*,*,#207,.F.);
#267=ORIENTED_EDGE('',*,*,#208,.T.);
#268=ORIENTED_EDGE('',*,*,#209,.T.);
#269=ORIENTED_EDGE('',*,*,#208,.F.);
#270=ORIENTED_EDGE('',*,*,#209,.F.);
#271=ORIENTED_EDGE('',*,*,#210,.F.);
#272=ORIENTED_EDGE('',*,*,#211,.T.);
#273=ORIENTED_EDGE('',*,*,#212,.F.);
#274=ORIENTED_EDGE('',*,*,#213,.F.);
#275=ORIENTED_EDGE('',*,*,#214,.F.);
#276=ORIENTED_EDGE('',*,*,#215,.F.);
#277=ORIENTED_EDGE('',*,*,#211,.F.);
#278=ORIENTED_EDGE('',*,*,#210,.T.);
#279=ORIENTED_EDGE('',*,*,#207,.T.);
#280=ORIENTED_EDGE('',*,*,#215,.T.);
#281=ORIENTED_EDGE('',*,*,#216,.F.);
#282=ORIENTED_EDGE('',*,*,#217,.F.);
#283=ORIENTED_EDGE('',*,*,#214,.T.);
#284=ORIENTED_EDGE('',*,*,#205,.F.);
#285=ORIENTED_EDGE('',*,*,#218,.F.);
#286=ORIENTED_EDGE('',*,*,#213,.T.);
#287=ORIENTED_EDGE('',*,*,#196,.F.);
#288=ORIENTED_EDGE('',*,*,#206,.F.);
#289=ORIENTED_EDGE('',*,*,#212,.T.);
#290=ORIENTED_EDGE('',*,*,#219,.F.);
#291=ORIENTED_EDGE('',*,*,#197,.F.);
#292=ORIENTED_EDGE('',*,*,#192,.T.);
#293=ORIENTED_EDGE('',*,*,#203,.F.);
#294=ORIENTED_EDGE('',*,*,#220,.F.);
#295=ORIENTED_EDGE('',*,*,#216,.T.);
#296=ORIENTED_EDGE('',*,*,#218,.T.);
#297=ORIENTED_EDGE('',*,*,#204,.T.);
#298=ORIENTED_EDGE('',*,*,#200,.F.);
#299=ORIENTED_EDGE('',*,*,#190,.T.);
#300=ORIENTED_EDGE('',*,*,#185,.T.);
#301=ORIENTED_EDGE('',*,*,#202,.T.);
#302=ORIENTED_EDGE('',*,*,#198,.F.);
#303=ORIENTED_EDGE('',*,*,#219,.T.);
#304=ORIENTED_EDGE('',*,*,#217,.T.);
#305=ORIENTED_EDGE('',*,*,#220,.T.);
#306=ORIENTED_EDGE('',*,*,#183,.T.);
#307=CYLINDRICAL_SURFACE('',#347,3.);
#308=CYLINDRICAL_SURFACE('',#350,2.5);
#309=CYLINDRICAL_SURFACE('',#359,15.);
#310=CYLINDRICAL_SURFACE('',#361,15.);
#311=CYLINDRICAL_SURFACE('',#364,2.5);
#312=CYLINDRICAL_SURFACE('',#368,15.);
#313=ADVANCED_FACE('',(#37),#307,.F.);
#314=ADVANCED_FACE('',(#38),#308,.F.);
#315=ADVANCED_FACE('',(#39),#24,.F.);
#316=ADVANCED_FACE('',(#40,#19),#25,.F.);
#317=ADVANCED_FACE('',(#41,#20),#26,.T.);
#318=ADVANCED_FACE('',(#42),#27,.T.);
#319=ADVANCED_FACE('',(#43),#309,.T.);
#320=ADVANCED_FACE('',(#44),#310,.T.);
#321=ADVANCED_FACE('',(#45,#21),#28,.T.);
#322=ADVANCED_FACE('',(#46),#311,.F.);
#323=ADVANCED_FACE('',(#47),#29,.T.);
#324=ADVANCED_FACE('',(#48),#312,.T.);
#325=ADVANCED_FACE('',(#49,#22),#30,.F.);
#326=ADVANCED_FACE('',(#50),#31,.F.);
#327=ADVANCED_FACE('',(#51),#32,.F.);
#328=ADVANCED_FACE('',(#52),#33,.F.);
#329=ADVANCED_FACE('',(#53),#34,.F.);
#330=ADVANCED_FACE('',(#54),#35,.T.);
#331=ADVANCED_FACE('',(#55,#23),#36,.T.);
#332=CLOSED_SHELL('',(#313,#314,#315,#316,#317,#318,#319,#320,#321,#322,
#323,#324,#325,#326,#327,#328,#329,#330,#331));
#333=DERIVED_UNIT_ELEMENT(#335,1.);
#334=DERIVED_UNIT_ELEMENT(#583,-3.);
#335=(
MASS_UNIT()
NAMED_UNIT(*)
SI_UNIT(.KILO.,.GRAM.)
);
#336=DERIVED_UNIT((#333,#334));
#337=MEASURE_REPRESENTATION_ITEM('density measure',
POSITIVE_RATIO_MEASURE(7850.),#336);
#338=PROPERTY_DEFINITION_REPRESENTATION(#343,#340);
#339=PROPERTY_DEFINITION_REPRESENTATION(#344,#341);
#340=REPRESENTATION('material name',(#342),#580);
#341=REPRESENTATION('density',(#337),#580);
#342=DESCRIPTIVE_REPRESENTATION_ITEM('Acier','Acier');
#343=PROPERTY_DEFINITION('material property','material name',#595);
#344=PROPERTY_DEFINITION('material property','density of part',#595);
#345=AXIS2_PLACEMENT_3D('',#484,#382,#383);
#346=AXIS2_PLACEMENT_3D('',#485,#384,#385);
#347=AXIS2_PLACEMENT_3D('',#486,#386,#387);
#348=AXIS2_PLACEMENT_3D('',#488,#388,#389);
#349=AXIS2_PLACEMENT_3D('',#491,#391,#392);
#350=AXIS2_PLACEMENT_3D('',#492,#393,#394);
#351=AXIS2_PLACEMENT_3D('',#494,#395,#396);
#352=AXIS2_PLACEMENT_3D('',#497,#398,#399);
#353=AXIS2_PLACEMENT_3D('',#498,#400,#401);
#354=AXIS2_PLACEMENT_3D('',#507,#406,#407);
#355=AXIS2_PLACEMENT_3D('',#510,#408,#409);
#356=AXIS2_PLACEMENT_3D('',#513,#412,#413);
#357=AXIS2_PLACEMENT_3D('',#516,#414,#415);
#358=AXIS2_PLACEMENT_3D('',#519,#418,#419);
#359=AXIS2_PLACEMENT_3D('',#531,#426,#427);
#360=AXIS2_PLACEMENT_3D('',#534,#429,#430);
#361=AXIS2_PLACEMENT_3D('',#535,#431,#432);
#362=AXIS2_PLACEMENT_3D('',#537,#433,#434);
#363=AXIS2_PLACEMENT_3D('',#539,#436,#437);
#364=AXIS2_PLACEMENT_3D('',#545,#441,#442);
#365=AXIS2_PLACEMENT_3D('',#547,#443,#444);
#366=AXIS2_PLACEMENT_3D('',#550,#446,#447);
#367=AXIS2_PLACEMENT_3D('',#551,#448,#449);
#368=AXIS2_PLACEMENT_3D('',#552,#450,#451);
#369=AXIS2_PLACEMENT_3D('',#554,#452,#453);
#370=AXIS2_PLACEMENT_3D('',#557,#455,#456);
#371=AXIS2_PLACEMENT_3D('',#558,#457,#458);
#372=AXIS2_PLACEMENT_3D('',#560,#459,#460);
#373=AXIS2_PLACEMENT_3D('',#561,#461,#462);
#374=AXIS2_PLACEMENT_3D('',#562,#463,#464);
#375=AXIS2_PLACEMENT_3D('',#563,#465,#466);
#376=AXIS2_PLACEMENT_3D('',#567,#469,#470);
#377=AXIS2_PLACEMENT_3D('',#569,#472,#473);
#378=AXIS2_PLACEMENT_3D('',#570,#474,#475);
#379=AXIS2_PLACEMENT_3D('',#572,#477,#478);
#380=AXIS2_PLACEMENT_3D('',#574,#480,#481);
#381=AXIS2_PLACEMENT_3D('',#575,#482,#483);
#382=DIRECTION('axis',(0.,0.,1.));
#383=DIRECTION('refdir',(1.,0.,0.));
#384=DIRECTION('axis',(0.,0.,1.));
#385=DIRECTION('refdir',(1.,0.,0.));
#386=DIRECTION('center_axis',(-1.,0.,0.));
#387=DIRECTION('ref_axis',(0.,1.,0.));
#388=DIRECTION('center_axis',(-1.,1.26882631385732E-16,0.));
#389=DIRECTION('ref_axis',(0.,1.,0.));
#390=DIRECTION('',(-1.,0.,0.));
#391=DIRECTION('center_axis',(1.,-1.26882631385732E-16,0.));
#392=DIRECTION('ref_axis',(0.,1.,0.));
#393=DIRECTION('center_axis',(-1.,0.,0.));
#394=DIRECTION('ref_axis',(0.,1.,0.));
#395=DIRECTION('center_axis',(-1.,1.26882631385732E-16,0.));
#396=DIRECTION('ref_axis',(0.,1.,0.));
#397=DIRECTION('',(-1.,0.,0.));
#398=DIRECTION('center_axis',(1.,-1.26882631385732E-16,0.));
#399=DIRECTION('ref_axis',(0.,1.,0.));
#400=DIRECTION('center_axis',(0.,1.,0.));
#401=DIRECTION('ref_axis',(0.,0.,1.));
#402=DIRECTION('',(0.,0.,-1.));
#403=DIRECTION('',(-1.,0.,0.));
#404=DIRECTION('',(0.,0.,1.));
#405=DIRECTION('',(1.,0.,0.));
#406=DIRECTION('center_axis',(1.,-1.26882631385732E-16,0.));
#407=DIRECTION('ref_axis',(1.26882631385732E-16,1.,0.));
#408=DIRECTION('center_axis',(1.,-1.26882631385732E-16,0.));
#409=DIRECTION('ref_axis',(0.,1.,0.));
#410=DIRECTION('',(-1.26882631385732E-16,-1.,0.));
#411=DIRECTION('',(1.26882631385732E-16,1.,0.));
#412=DIRECTION('center_axis',(1.,-1.26882631385732E-16,0.));
#413=DIRECTION('ref_axis',(1.26882631385732E-16,1.,0.));
#414=DIRECTION('center_axis',(-1.,1.26882631385732E-16,0.));
#415=DIRECTION('ref_axis',(0.,1.,0.));
#416=DIRECTION('',(-1.26882631385732E-16,-1.,0.));
#417=DIRECTION('',(1.26882631385732E-16,1.,0.));
#418=DIRECTION('center_axis',(0.,0.,1.));
#419=DIRECTION('ref_axis',(-1.,1.2335811384724E-16,0.));
#420=DIRECTION('',(1.,0.,0.));
#421=DIRECTION('',(-1.26882631385732E-16,-1.,0.));
#422=DIRECTION('',(-1.,1.2335811384724E-16,0.));
#423=DIRECTION('',(-1.,1.2335811384724E-16,0.));
#424=DIRECTION('',(-1.26882631385732E-16,-1.,0.));
#425=DIRECTION('',(1.,0.,0.));
#426=DIRECTION('center_axis',(-1.,0.,0.));
#427=DIRECTION('ref_axis',(0.,-1.,-1.22464679914735E-16));
#428=DIRECTION('',(1.,0.,0.));
#429=DIRECTION('center_axis',(1.,-1.26882631385732E-16,0.));
#430=DIRECTION('ref_axis',(0.,1.,0.));
#431=DIRECTION('center_axis',(-1.,0.,0.));
#432=DIRECTION('ref_axis',(0.,-1.,-1.22464679914735E-16));
#433=DIRECTION('center_axis',(-1.,1.26882631385732E-16,0.));
#434=DIRECTION('ref_axis',(0.,1.,0.));
#435=DIRECTION('',(1.,0.,0.));
#436=DIRECTION('center_axis',(1.,-1.26882631385732E-16,0.));
#437=DIRECTION('ref_axis',(0.,0.,1.));
#438=DIRECTION('',(-1.26882631385732E-16,-1.,0.));
#439=DIRECTION('',(0.,0.,1.));
#440=DIRECTION('',(0.,0.,1.));
#441=DIRECTION('center_axis',(-1.2490009027033E-16,-1.,0.));
#442=DIRECTION('ref_axis',(-1.,1.2490009027033E-16,0.));
#443=DIRECTION('center_axis',(-1.2335811384724E-16,-1.,0.));
#444=DIRECTION('ref_axis',(-1.,1.2490009027033E-16,0.));
#445=DIRECTION('',(-1.2490009027033E-16,-1.,0.));
#446=DIRECTION('center_axis',(-1.2335811384724E-16,-1.,0.));
#447=DIRECTION('ref_axis',(-1.,1.2335811384724E-16,0.));
#448=DIRECTION('center_axis',(1.2335811384724E-16,1.,0.));
#449=DIRECTION('ref_axis',(-1.,1.2335811384724E-16,0.));
#450=DIRECTION('center_axis',(1.08314441426845E-16,1.,0.));
#451=DIRECTION('ref_axis',(1.,-1.08314441426845E-16,0.));
#452=DIRECTION('center_axis',(1.2335811384724E-16,1.,0.));
#453=DIRECTION('ref_axis',(1.,-1.2335811384724E-16,0.));
#454=DIRECTION('',(-1.08314441426845E-16,-1.,0.));
#455=DIRECTION('center_axis',(-1.2335811384724E-16,-1.,0.));
#456=DIRECTION('ref_axis',(1.,-1.08314441426845E-16,0.));
#457=DIRECTION('center_axis',(-1.2335811384724E-16,-1.,0.));
#458=DIRECTION('ref_axis',(1.,-1.08314441426845E-16,0.));
#459=DIRECTION('center_axis',(-1.2335811384724E-16,-1.,0.));
#460=DIRECTION('ref_axis',(1.,-1.08314441426845E-16,0.));
#461=DIRECTION('center_axis',(-1.2335811384724E-16,-1.,0.));
#462=DIRECTION('ref_axis',(1.,-1.08314441426845E-16,0.));
#463=DIRECTION('center_axis',(-1.2335811384724E-16,-1.,0.));
#464=DIRECTION('ref_axis',(1.,-1.2335811384724E-16,0.));
#465=DIRECTION('center_axis',(-1.2335811384724E-16,-1.,0.));
#466=DIRECTION('ref_axis',(1.,-1.2335811384724E-16,0.));
#467=DIRECTION('',(1.,-1.2335811384724E-16,0.));
#468=DIRECTION('',(0.,0.,-1.));
#469=DIRECTION('center_axis',(-1.2335811384724E-16,-1.,0.));
#470=DIRECTION('ref_axis',(1.,-1.2335811384724E-16,0.));
#471=DIRECTION('',(1.,-1.2335811384724E-16,0.));
#472=DIRECTION('center_axis',(-1.2335811384724E-16,-1.,0.));
#473=DIRECTION('ref_axis',(1.,-1.2335811384724E-16,0.));
#474=DIRECTION('center_axis',(-1.2335811384724E-16,-1.,0.));
#475=DIRECTION('ref_axis',(1.,-1.2335811384724E-16,0.));
#476=DIRECTION('',(0.,0.,-1.));
#477=DIRECTION('center_axis',(0.,0.,-1.));
#478=DIRECTION('ref_axis',(1.,-1.2335811384724E-16,0.));
#479=DIRECTION('',(-1.26882631385732E-16,-1.,0.));
#480=DIRECTION('center_axis',(-1.,1.26882631385732E-16,0.));
#481=DIRECTION('ref_axis',(0.,0.,-1.));
#482=DIRECTION('',(0.,0.,1.));
#483=DIRECTION('',(1.,0.,0.));
#484=CARTESIAN_POINT('',(0.,0.,0.));
#485=CARTESIAN_POINT('',(0.,0.,0.));
#486=CARTESIAN_POINT('Origin',(15.,-62.,-36.5));
#487=CARTESIAN_POINT('',(15.,-65.,-36.5));
#488=CARTESIAN_POINT('Origin',(15.,-62.,-36.5));
#489=CARTESIAN_POINT('',(7.49999999999999,-65.,-36.5));
#490=CARTESIAN_POINT('',(15.,-65.,-36.5));
#491=CARTESIAN_POINT('Origin',(7.49999999999999,-62.,-36.5));
#492=CARTESIAN_POINT('Origin',(15.,-62.,-36.5));
#493=CARTESIAN_POINT('',(-7.50000000000001,-64.5,-36.5));
#494=CARTESIAN_POINT('Origin',(-7.50000000000001,-62.,-36.5));
#495=CARTESIAN_POINT('',(-15.,-64.5,-36.5));
#496=CARTESIAN_POINT('',(15.,-64.5,-36.5));
#497=CARTESIAN_POINT('Origin',(-15.,-62.,-36.5));
#498=CARTESIAN_POINT('Origin',(-7.50000000000001,-47.,-51.5));
#499=CARTESIAN_POINT('',(-7.50000000000001,-47.,-21.5));
#500=CARTESIAN_POINT('',(-7.50000000000001,-47.,-51.5));
#501=CARTESIAN_POINT('',(-7.50000000000001,-47.,-21.5));
#502=CARTESIAN_POINT('',(7.49999999999999,-47.,-51.5));
#503=CARTESIAN_POINT('',(-11.25,-47.,-51.5));
#504=CARTESIAN_POINT('',(7.49999999999999,-47.,-21.5));
#505=CARTESIAN_POINT('',(7.49999999999999,-47.,-21.5));
#506=CARTESIAN_POINT('',(3.74999999999999,-47.,-21.5));
#507=CARTESIAN_POINT('Origin',(7.49999999999999,-62.,-36.5));
#508=CARTESIAN_POINT('',(7.49999999999999,-62.,-21.5));
#509=CARTESIAN_POINT('',(7.49999999999999,-62.,-51.5));
#510=CARTESIAN_POINT('Origin',(7.49999999999999,-62.,-36.5));
#511=CARTESIAN_POINT('',(7.49999999999999,-52.,-21.5));
#512=CARTESIAN_POINT('',(7.49999999999999,-52.,-51.5));
#513=CARTESIAN_POINT('Origin',(-7.50000000000001,-62.,-36.5));
#514=CARTESIAN_POINT('',(-7.50000000000001,-62.,-51.5));
#515=CARTESIAN_POINT('',(-7.50000000000001,-62.,-21.5));
#516=CARTESIAN_POINT('Origin',(-7.50000000000001,-62.,-36.5));
#517=CARTESIAN_POINT('',(-7.50000000000001,-52.,-51.5));
#518=CARTESIAN_POINT('',(-7.50000000000001,-52.,-21.5));
#519=CARTESIAN_POINT('Origin',(15.,-42.,-21.5));
#520=CARTESIAN_POINT('',(15.,-62.,-21.5));
#521=CARTESIAN_POINT('',(15.,-62.,-21.5));
#522=CARTESIAN_POINT('',(15.,-42.,-21.5));
#523=CARTESIAN_POINT('',(15.,-42.,-21.5));
#524=CARTESIAN_POINT('',(4.22682948917746E-16,-42.,-21.5));
#525=CARTESIAN_POINT('',(15.,-42.,-21.5));
#526=CARTESIAN_POINT('',(-15.,-42.,-21.5));
#527=CARTESIAN_POINT('',(15.,-42.,-21.5));
#528=CARTESIAN_POINT('',(-15.,-62.,-21.5));
#529=CARTESIAN_POINT('',(-15.,-42.,-21.5));
#530=CARTESIAN_POINT('',(15.,-62.,-21.5));
#531=CARTESIAN_POINT('Origin',(15.,-62.,-36.5));
#532=CARTESIAN_POINT('',(15.,-62.,-51.5));
#533=CARTESIAN_POINT('',(15.,-62.,-51.5));
#534=CARTESIAN_POINT('Origin',(15.,-62.,-36.5));
#535=CARTESIAN_POINT('Origin',(15.,-62.,-36.5));
#536=CARTESIAN_POINT('',(-15.,-62.,-51.5));
#537=CARTESIAN_POINT('Origin',(-15.,-62.,-36.5));
#538=CARTESIAN_POINT('',(15.,-62.,-51.5));
#539=CARTESIAN_POINT('Origin',(15.,-42.,-51.5));
#540=CARTESIAN_POINT('',(15.,-42.,-51.5));
#541=CARTESIAN_POINT('',(15.,-42.,-51.5));
#542=CARTESIAN_POINT('',(15.,-42.,-36.5));
#543=CARTESIAN_POINT('',(15.,-42.,-51.5));
#544=CARTESIAN_POINT('',(15.,-42.,-51.5));
#545=CARTESIAN_POINT('Origin',(2.1496965427791E-15,-21.5,-36.5));
#546=CARTESIAN_POINT('',(2.5,-21.5,-36.5));
#547=CARTESIAN_POINT('Origin',(2.1496965427791E-15,-21.5,-36.5));
#548=CARTESIAN_POINT('',(2.5,-41.5,-36.5));
#549=CARTESIAN_POINT('',(2.5,-21.5,-36.5));
#550=CARTESIAN_POINT('Origin',(-3.48305262627502E-16,-41.5,-36.5));
#551=CARTESIAN_POINT('Origin',(-1.54197642309049E-16,-41.5,-36.5));
#552=CARTESIAN_POINT('Origin',(4.22682948917746E-16,-42.,-36.5));
#553=CARTESIAN_POINT('',(-15.,-21.5,-36.5));
#554=CARTESIAN_POINT('Origin',(2.64312899816806E-15,-21.5,-36.5));
#555=CARTESIAN_POINT('',(-15.,-42.,-36.5));
#556=CARTESIAN_POINT('',(-15.,-42.,-36.5));
#557=CARTESIAN_POINT('Origin',(4.22682948917746E-16,-42.,-36.5));
#558=CARTESIAN_POINT('Origin',(4.22682948917746E-16,-42.,-36.5));
#559=CARTESIAN_POINT('',(4.22682948917746E-16,-42.,-51.5));
#560=CARTESIAN_POINT('Origin',(4.22682948917746E-16,-42.,-36.5));
#561=CARTESIAN_POINT('Origin',(4.22682948917746E-16,-42.,-36.5));
#562=CARTESIAN_POINT('Origin',(1.97372982155583E-15,-21.5,-36.5));
#563=CARTESIAN_POINT('Origin',(-9.12850042469573E-15,-42.,-36.5));
#564=CARTESIAN_POINT('',(-15.,-42.,-51.5));
#565=CARTESIAN_POINT('',(-15.,-42.,-51.5));
#566=CARTESIAN_POINT('',(-15.,-42.,-21.5));
#567=CARTESIAN_POINT('Origin',(-9.12850042469573E-15,-42.,-36.5));
#568=CARTESIAN_POINT('',(-15.,-42.,-51.5));
#569=CARTESIAN_POINT('Origin',(-9.12850042469573E-15,-42.,-36.5));
#570=CARTESIAN_POINT('Origin',(-9.12850042469573E-15,-42.,-36.5));
#571=CARTESIAN_POINT('',(-15.,-42.,-21.5));
#572=CARTESIAN_POINT('Origin',(-15.,-42.,-51.5));
#573=CARTESIAN_POINT('',(-15.,-42.,-51.5));
#574=CARTESIAN_POINT('Origin',(-15.,-42.,-21.5));
#575=CARTESIAN_POINT('',(0.,0.,0.));
#576=UNCERTAINTY_MEASURE_WITH_UNIT(LENGTH_MEASURE(0.01),#582,
'DISTANCE_ACCURACY_VALUE',
'Maximum model space distance between geometric entities at asserted c
onnectivities');
#577=UNCERTAINTY_MEASURE_WITH_UNIT(LENGTH_MEASURE(0.01),#582,
'DISTANCE_ACCURACY_VALUE',
'Maximum model space distance between geometric entities at asserted c
onnectivities');
#578=UNCERTAINTY_MEASURE_WITH_UNIT(LENGTH_MEASURE(0.01),#582,
'DISTANCE_ACCURACY_VALUE',
'Maximum model space distance between geometric entities at asserted c
onnectivities');
#579=(
GEOMETRIC_REPRESENTATION_CONTEXT(3)
GLOBAL_UNCERTAINTY_ASSIGNED_CONTEXT((#576))
GLOBAL_UNIT_ASSIGNED_CONTEXT((#582,#584,#585))
REPRESENTATION_CONTEXT('','3D')
);
#580=(
GEOMETRIC_REPRESENTATION_CONTEXT(3)
GLOBAL_UNCERTAINTY_ASSIGNED_CONTEXT((#577))
GLOBAL_UNIT_ASSIGNED_CONTEXT((#582,#584,#585))
REPRESENTATION_CONTEXT('','3D')
);
#581=(
GEOMETRIC_REPRESENTATION_CONTEXT(3)
GLOBAL_UNCERTAINTY_ASSIGNED_CONTEXT((#578))
GLOBAL_UNIT_ASSIGNED_CONTEXT((#582,#584,#585))
REPRESENTATION_CONTEXT('','3D')
);
#582=(
LENGTH_UNIT()
NAMED_UNIT(*)
SI_UNIT(.MILLI.,.METRE.)
);
#583=(
LENGTH_UNIT()
NAMED_UNIT(*)
SI_UNIT($,.METRE.)
);
#584=(
NAMED_UNIT(*)
PLANE_ANGLE_UNIT()
SI_UNIT($,.RADIAN.)
);
#585=(
NAMED_UNIT(*)
SI_UNIT($,.STERADIAN.)
SOLID_ANGLE_UNIT()
);
#586=SHAPE_DEFINITION_REPRESENTATION(#588,#591);
#587=SHAPE_DEFINITION_REPRESENTATION(#589,#592);
#588=PRODUCT_DEFINITION_SHAPE('',$,#594);
#589=PRODUCT_DEFINITION_SHAPE('',$,#595);
#590=PRODUCT_DEFINITION_SHAPE($,$,#14);
#591=SHAPE_REPRESENTATION('',(#345,#381),#579);
#592=SHAPE_REPRESENTATION('',(#346),#580);
#593=PRODUCT_DEFINITION_CONTEXT('part definition',#601,'design');
#594=PRODUCT_DEFINITION('fixation simplifiee','fixation simplifiee v3',
#596,#593);
#595=PRODUCT_DEFINITION('ROTULE DOUBLE','ROTULE DOUBLE',#597,#593);
#596=PRODUCT_DEFINITION_FORMATION('',$,#603);
#597=PRODUCT_DEFINITION_FORMATION('',$,#604);
#598=PRODUCT_RELATED_PRODUCT_CATEGORY('fixation simplifiee v3',
'fixation simplifiee v3',(#603));
#599=PRODUCT_RELATED_PRODUCT_CATEGORY('ROTULE DOUBLE','ROTULE DOUBLE',(#604));
#600=APPLICATION_PROTOCOL_DEFINITION('international standard',
'automotive_design',2009,#601);
#601=APPLICATION_CONTEXT(
'Core Data for Automotive Mechanical Design Process');
#602=PRODUCT_CONTEXT('part definition',#601,'mechanical');
#603=PRODUCT('fixation simplifiee','fixation simplifiee v3',$,(#602));
#604=PRODUCT('ROTULE DOUBLE','ROTULE DOUBLE',$,(#602));
#605=PRESENTATION_STYLE_ASSIGNMENT((#608));
#606=PRESENTATION_STYLE_ASSIGNMENT((#609));
#607=PRESENTATION_STYLE_ASSIGNMENT((#610));
#608=SURFACE_STYLE_USAGE(.BOTH.,#611);
#609=SURFACE_STYLE_USAGE(.BOTH.,#612);
#610=SURFACE_STYLE_USAGE(.BOTH.,#613);
#611=SURFACE_SIDE_STYLE('',(#614));
#612=SURFACE_SIDE_STYLE('',(#615));
#613=SURFACE_SIDE_STYLE('',(#616));
#614=SURFACE_STYLE_FILL_AREA(#617);
#615=SURFACE_STYLE_FILL_AREA(#618);
#616=SURFACE_STYLE_FILL_AREA(#619);
#617=FILL_AREA_STYLE('Acier - Satin\X\E9',(#620));
#618=FILL_AREA_STYLE(
'PA 11 - Nylon - HP 11-30 (avec imprimante 3D EOS P 396)',(#621));
#619=FILL_AREA_STYLE('Aluminium - Microbill\X\E9',(#622));
#620=FILL_AREA_STYLE_COLOUR('Acier - Satin\X\E9',#623);
#621=FILL_AREA_STYLE_COLOUR(
'PA 11 - Nylon - HP 11-30 (avec imprimante 3D EOS P 396)',#624);
#622=FILL_AREA_STYLE_COLOUR('Aluminium - Microbill\X\E9',#625);
#623=COLOUR_RGB('Acier - Satin\X\E9',0.627450980392157,0.627450980392157,
0.627450980392157);
#624=COLOUR_RGB(
'PA 11 - Nylon - HP 11-30 (avec imprimante 3D EOS P 396)',0.247058823529412,
0.247058823529412,0.247058823529412);
#625=COLOUR_RGB('Aluminium - Microbill\X\E9',0.96078431372549,0.96078431372549,
0.964705882352941);
ENDSEC;
END-ISO-10303-21;
