ISO-10303-21;
HEADER;
/* Generated by software containing ST-Developer
 * from STEP Tools, Inc. (www.steptools.com) 
 */

FILE_DESCRIPTION(
/* description */ (''),
/* implementation_level */ '2;1');

FILE_NAME(
/* name */ 'Guide numro 2_.step',
/* time_stamp */ '2024-03-16T13:10:01+01:00',
/* author */ (''),
/* organization */ (''),
/* preprocessor_version */ 'ST-DEVELOPER v20',
/* originating_system */ 'Autodesk Translation Framework v12.20.1.177',

/* authorisation */ '');

FILE_SCHEMA (('AUTOMOTIVE_DESIGN { 1 0 10303 214 3 1 1 }'));
ENDSEC;

DATA;
#10=MECHANICAL_DESIGN_GEOMETRIC_PRESENTATION_REPRESENTATION('',(#13),#443);
#11=SHAPE_REPRESENTATION_RELATIONSHIP('SRR','None',#450,#12);
#12=ADVANCED_BREP_SHAPE_REPRESENTATION('',(#14),#442);
#13=STYLED_ITEM('',(#459),#14);
#14=MANIFOLD_SOLID_BREP('Corps1',#265);
#15=CYLINDRICAL_SURFACE('',#284,2.75);
#16=CYLINDRICAL_SURFACE('',#288,2.75);
#17=FACE_BOUND('',#47,.T.);
#18=FACE_BOUND('',#48,.T.);
#19=FACE_BOUND('',#56,.T.);
#20=FACE_BOUND('',#58,.T.);
#21=PLANE('',#282);
#22=PLANE('',#290);
#23=PLANE('',#291);
#24=PLANE('',#292);
#25=PLANE('',#293);
#26=PLANE('',#294);
#27=PLANE('',#295);
#28=PLANE('',#296);
#29=PLANE('',#297);
#30=PLANE('',#298);
#31=FACE_OUTER_BOUND('',#45,.T.);
#32=FACE_OUTER_BOUND('',#46,.T.);
#33=FACE_OUTER_BOUND('',#49,.T.);
#34=FACE_OUTER_BOUND('',#50,.T.);
#35=FACE_OUTER_BOUND('',#51,.T.);
#36=FACE_OUTER_BOUND('',#52,.T.);
#37=FACE_OUTER_BOUND('',#53,.T.);
#38=FACE_OUTER_BOUND('',#54,.T.);
#39=FACE_OUTER_BOUND('',#55,.T.);
#40=FACE_OUTER_BOUND('',#57,.T.);
#41=FACE_OUTER_BOUND('',#59,.T.);
#42=FACE_OUTER_BOUND('',#60,.T.);
#43=FACE_OUTER_BOUND('',#61,.T.);
#44=FACE_OUTER_BOUND('',#62,.T.);
#45=EDGE_LOOP('',(#181,#182,#183,#184));
#46=EDGE_LOOP('',(#185,#186,#187,#188));
#47=EDGE_LOOP('',(#189));
#48=EDGE_LOOP('',(#190));
#49=EDGE_LOOP('',(#191,#192,#193,#194));
#50=EDGE_LOOP('',(#195,#196,#197,#198));
#51=EDGE_LOOP('',(#199,#200,#201,#202));
#52=EDGE_LOOP('',(#203,#204,#205,#206));
#53=EDGE_LOOP('',(#207,#208,#209,#210));
#54=EDGE_LOOP('',(#211,#212,#213,#214));
#55=EDGE_LOOP('',(#215,#216,#217,#218));
#56=EDGE_LOOP('',(#219));
#57=EDGE_LOOP('',(#220,#221,#222,#223));
#58=EDGE_LOOP('',(#224));
#59=EDGE_LOOP('',(#225,#226,#227,#228,#229,#230,#231,#232));
#60=EDGE_LOOP('',(#233,#234,#235,#236,#237,#238,#239,#240));
#61=EDGE_LOOP('',(#241,#242,#243,#244));
#62=EDGE_LOOP('',(#245,#246,#247,#248));
#63=LINE('',#374,#91);
#64=LINE('',#379,#92);
#65=LINE('',#381,#93);
#66=LINE('',#383,#94);
#67=LINE('',#384,#95);
#68=LINE('',#389,#96);
#69=LINE('',#393,#97);
#70=LINE('',#397,#98);
#71=LINE('',#402,#99);
#72=LINE('',#404,#100);
#73=LINE('',#406,#101);
#74=LINE('',#407,#102);
#75=LINE('',#410,#103);
#76=LINE('',#412,#104);
#77=LINE('',#413,#105);
#78=LINE('',#416,#106);
#79=LINE('',#418,#107);
#80=LINE('',#419,#108);
#81=LINE('',#422,#109);
#82=LINE('',#424,#110);
#83=LINE('',#425,#111);
#84=LINE('',#428,#112);
#85=LINE('',#430,#113);
#86=LINE('',#431,#114);
#87=LINE('',#433,#115);
#88=LINE('',#434,#116);
#89=LINE('',#436,#117);
#90=LINE('',#437,#118);
#91=VECTOR('',#305,3.);
#92=VECTOR('',#310,10.);
#93=VECTOR('',#311,10.);
#94=VECTOR('',#312,10.);
#95=VECTOR('',#313,10.);
#96=VECTOR('',#318,2.75);
#97=VECTOR('',#323,3.);
#98=VECTOR('',#328,2.75);
#99=VECTOR('',#333,10.);
#100=VECTOR('',#334,10.);
#101=VECTOR('',#335,10.);
#102=VECTOR('',#336,10.);
#103=VECTOR('',#339,10.);
#104=VECTOR('',#340,10.);
#105=VECTOR('',#341,10.);
#106=VECTOR('',#344,10.);
#107=VECTOR('',#345,10.);
#108=VECTOR('',#346,10.);
#109=VECTOR('',#349,10.);
#110=VECTOR('',#350,10.);
#111=VECTOR('',#351,10.);
#112=VECTOR('',#354,10.);
#113=VECTOR('',#355,10.);
#114=VECTOR('',#356,10.);
#115=VECTOR('',#359,10.);
#116=VECTOR('',#360,10.);
#117=VECTOR('',#363,10.);
#118=VECTOR('',#364,10.);
#119=CIRCLE('',#280,3.25);
#120=CIRCLE('',#281,2.75);
#121=CIRCLE('',#283,3.25);
#122=CIRCLE('',#285,2.75);
#123=CIRCLE('',#287,2.75);
#124=CIRCLE('',#289,2.75);
#125=VERTEX_POINT('',#371);
#126=VERTEX_POINT('',#373);
#127=VERTEX_POINT('',#377);
#128=VERTEX_POINT('',#378);
#129=VERTEX_POINT('',#380);
#130=VERTEX_POINT('',#382);
#131=VERTEX_POINT('',#385);
#132=VERTEX_POINT('',#388);
#133=VERTEX_POINT('',#392);
#134=VERTEX_POINT('',#396);
#135=VERTEX_POINT('',#400);
#136=VERTEX_POINT('',#401);
#137=VERTEX_POINT('',#403);
#138=VERTEX_POINT('',#405);
#139=VERTEX_POINT('',#409);
#140=VERTEX_POINT('',#411);
#141=VERTEX_POINT('',#415);
#142=VERTEX_POINT('',#417);
#143=VERTEX_POINT('',#421);
#144=VERTEX_POINT('',#423);
#145=VERTEX_POINT('',#427);
#146=VERTEX_POINT('',#429);
#147=EDGE_CURVE('',#125,#125,#119,.T.);
#148=EDGE_CURVE('',#125,#126,#63,.T.);
#149=EDGE_CURVE('',#126,#126,#120,.T.);
#150=EDGE_CURVE('',#127,#128,#64,.T.);
#151=EDGE_CURVE('',#128,#129,#65,.T.);
#152=EDGE_CURVE('',#129,#130,#66,.T.);
#153=EDGE_CURVE('',#130,#127,#67,.T.);
#154=EDGE_CURVE('',#131,#131,#121,.T.);
#155=EDGE_CURVE('',#126,#132,#68,.T.);
#156=EDGE_CURVE('',#132,#132,#122,.T.);
#157=EDGE_CURVE('',#131,#133,#69,.T.);
#158=EDGE_CURVE('',#133,#133,#123,.T.);
#159=EDGE_CURVE('',#133,#134,#70,.T.);
#160=EDGE_CURVE('',#134,#134,#124,.T.);
#161=EDGE_CURVE('',#135,#136,#71,.T.);
#162=EDGE_CURVE('',#135,#137,#72,.T.);
#163=EDGE_CURVE('',#138,#137,#73,.T.);
#164=EDGE_CURVE('',#136,#138,#74,.T.);
#165=EDGE_CURVE('',#139,#135,#75,.T.);
#166=EDGE_CURVE('',#139,#140,#76,.T.);
#167=EDGE_CURVE('',#137,#140,#77,.T.);
#168=EDGE_CURVE('',#141,#139,#78,.T.);
#169=EDGE_CURVE('',#142,#141,#79,.T.);
#170=EDGE_CURVE('',#140,#142,#80,.T.);
#171=EDGE_CURVE('',#141,#143,#81,.T.);
#172=EDGE_CURVE('',#143,#144,#82,.T.);
#173=EDGE_CURVE('',#144,#142,#83,.T.);
#174=EDGE_CURVE('',#138,#145,#84,.T.);
#175=EDGE_CURVE('',#145,#146,#85,.T.);
#176=EDGE_CURVE('',#146,#136,#86,.T.);
#177=EDGE_CURVE('',#144,#129,#87,.T.);
#178=EDGE_CURVE('',#145,#128,#88,.T.);
#179=EDGE_CURVE('',#146,#127,#89,.T.);
#180=EDGE_CURVE('',#143,#130,#90,.T.);
#181=ORIENTED_EDGE('',*,*,#147,.T.);
#182=ORIENTED_EDGE('',*,*,#148,.T.);
#183=ORIENTED_EDGE('',*,*,#149,.T.);
#184=ORIENTED_EDGE('',*,*,#148,.F.);
#185=ORIENTED_EDGE('',*,*,#150,.T.);
#186=ORIENTED_EDGE('',*,*,#151,.T.);
#187=ORIENTED_EDGE('',*,*,#152,.T.);
#188=ORIENTED_EDGE('',*,*,#153,.T.);
#189=ORIENTED_EDGE('',*,*,#154,.F.);
#190=ORIENTED_EDGE('',*,*,#147,.F.);
#191=ORIENTED_EDGE('',*,*,#149,.F.);
#192=ORIENTED_EDGE('',*,*,#155,.T.);
#193=ORIENTED_EDGE('',*,*,#156,.F.);
#194=ORIENTED_EDGE('',*,*,#155,.F.);
#195=ORIENTED_EDGE('',*,*,#154,.T.);
#196=ORIENTED_EDGE('',*,*,#157,.T.);
#197=ORIENTED_EDGE('',*,*,#158,.T.);
#198=ORIENTED_EDGE('',*,*,#157,.F.);
#199=ORIENTED_EDGE('',*,*,#158,.F.);
#200=ORIENTED_EDGE('',*,*,#159,.T.);
#201=ORIENTED_EDGE('',*,*,#160,.F.);
#202=ORIENTED_EDGE('',*,*,#159,.F.);
#203=ORIENTED_EDGE('',*,*,#161,.F.);
#204=ORIENTED_EDGE('',*,*,#162,.T.);
#205=ORIENTED_EDGE('',*,*,#163,.F.);
#206=ORIENTED_EDGE('',*,*,#164,.F.);
#207=ORIENTED_EDGE('',*,*,#165,.F.);
#208=ORIENTED_EDGE('',*,*,#166,.T.);
#209=ORIENTED_EDGE('',*,*,#167,.F.);
#210=ORIENTED_EDGE('',*,*,#162,.F.);
#211=ORIENTED_EDGE('',*,*,#168,.F.);
#212=ORIENTED_EDGE('',*,*,#169,.F.);
#213=ORIENTED_EDGE('',*,*,#170,.F.);
#214=ORIENTED_EDGE('',*,*,#166,.F.);
#215=ORIENTED_EDGE('',*,*,#169,.T.);
#216=ORIENTED_EDGE('',*,*,#171,.T.);
#217=ORIENTED_EDGE('',*,*,#172,.T.);
#218=ORIENTED_EDGE('',*,*,#173,.T.);
#219=ORIENTED_EDGE('',*,*,#156,.T.);
#220=ORIENTED_EDGE('',*,*,#164,.T.);
#221=ORIENTED_EDGE('',*,*,#174,.T.);
#222=ORIENTED_EDGE('',*,*,#175,.T.);
#223=ORIENTED_EDGE('',*,*,#176,.T.);
#224=ORIENTED_EDGE('',*,*,#160,.T.);
#225=ORIENTED_EDGE('',*,*,#163,.T.);
#226=ORIENTED_EDGE('',*,*,#167,.T.);
#227=ORIENTED_EDGE('',*,*,#170,.T.);
#228=ORIENTED_EDGE('',*,*,#173,.F.);
#229=ORIENTED_EDGE('',*,*,#177,.T.);
#230=ORIENTED_EDGE('',*,*,#151,.F.);
#231=ORIENTED_EDGE('',*,*,#178,.F.);
#232=ORIENTED_EDGE('',*,*,#174,.F.);
#233=ORIENTED_EDGE('',*,*,#161,.T.);
#234=ORIENTED_EDGE('',*,*,#176,.F.);
#235=ORIENTED_EDGE('',*,*,#179,.T.);
#236=ORIENTED_EDGE('',*,*,#153,.F.);
#237=ORIENTED_EDGE('',*,*,#180,.F.);
#238=ORIENTED_EDGE('',*,*,#171,.F.);
#239=ORIENTED_EDGE('',*,*,#168,.T.);
#240=ORIENTED_EDGE('',*,*,#165,.T.);
#241=ORIENTED_EDGE('',*,*,#172,.F.);
#242=ORIENTED_EDGE('',*,*,#180,.T.);
#243=ORIENTED_EDGE('',*,*,#152,.F.);
#244=ORIENTED_EDGE('',*,*,#177,.F.);
#245=ORIENTED_EDGE('',*,*,#175,.F.);
#246=ORIENTED_EDGE('',*,*,#178,.T.);
#247=ORIENTED_EDGE('',*,*,#150,.F.);
#248=ORIENTED_EDGE('',*,*,#179,.F.);
#249=CONICAL_SURFACE('',#279,3.,0.785398163397448);
#250=CONICAL_SURFACE('',#286,3.,0.785398163397448);
#251=ADVANCED_FACE('',(#31),#249,.F.);
#252=ADVANCED_FACE('',(#32,#17,#18),#21,.T.);
#253=ADVANCED_FACE('',(#33),#15,.F.);
#254=ADVANCED_FACE('',(#34),#250,.F.);
#255=ADVANCED_FACE('',(#35),#16,.F.);
#256=ADVANCED_FACE('',(#36),#22,.F.);
#257=ADVANCED_FACE('',(#37),#23,.F.);
#258=ADVANCED_FACE('',(#38),#24,.F.);
#259=ADVANCED_FACE('',(#39,#19),#25,.F.);
#260=ADVANCED_FACE('',(#40,#20),#26,.F.);
#261=ADVANCED_FACE('',(#41),#27,.T.);
#262=ADVANCED_FACE('',(#42),#28,.T.);
#263=ADVANCED_FACE('',(#43),#29,.T.);
#264=ADVANCED_FACE('',(#44),#30,.T.);
#265=CLOSED_SHELL('',(#251,#252,#253,#254,#255,#256,#257,#258,#259,#260,
#261,#262,#263,#264));
#266=DERIVED_UNIT_ELEMENT(#268,1.);
#267=DERIVED_UNIT_ELEMENT(#445,-3.);
#268=(
MASS_UNIT()
NAMED_UNIT(*)
SI_UNIT(.KILO.,.GRAM.)
);
#269=DERIVED_UNIT((#266,#267));
#270=MEASURE_REPRESENTATION_ITEM('density measure',
POSITIVE_RATIO_MEASURE(7850.),#269);
#271=PROPERTY_DEFINITION_REPRESENTATION(#276,#273);
#272=PROPERTY_DEFINITION_REPRESENTATION(#277,#274);
#273=REPRESENTATION('material name',(#275),#442);
#274=REPRESENTATION('density',(#270),#442);
#275=DESCRIPTIVE_REPRESENTATION_ITEM('Acier','Acier');
#276=PROPERTY_DEFINITION('material property','material name',#452);
#277=PROPERTY_DEFINITION('material property','density of part',#452);
#278=AXIS2_PLACEMENT_3D('',#369,#299,#300);
#279=AXIS2_PLACEMENT_3D('',#370,#301,#302);
#280=AXIS2_PLACEMENT_3D('',#372,#303,#304);
#281=AXIS2_PLACEMENT_3D('',#375,#306,#307);
#282=AXIS2_PLACEMENT_3D('',#376,#308,#309);
#283=AXIS2_PLACEMENT_3D('',#386,#314,#315);
#284=AXIS2_PLACEMENT_3D('',#387,#316,#317);
#285=AXIS2_PLACEMENT_3D('',#390,#319,#320);
#286=AXIS2_PLACEMENT_3D('',#391,#321,#322);
#287=AXIS2_PLACEMENT_3D('',#394,#324,#325);
#288=AXIS2_PLACEMENT_3D('',#395,#326,#327);
#289=AXIS2_PLACEMENT_3D('',#398,#329,#330);
#290=AXIS2_PLACEMENT_3D('',#399,#331,#332);
#291=AXIS2_PLACEMENT_3D('',#408,#337,#338);
#292=AXIS2_PLACEMENT_3D('',#414,#342,#343);
#293=AXIS2_PLACEMENT_3D('',#420,#347,#348);
#294=AXIS2_PLACEMENT_3D('',#426,#352,#353);
#295=AXIS2_PLACEMENT_3D('',#432,#357,#358);
#296=AXIS2_PLACEMENT_3D('',#435,#361,#362);
#297=AXIS2_PLACEMENT_3D('',#438,#365,#366);
#298=AXIS2_PLACEMENT_3D('',#439,#367,#368);
#299=DIRECTION('axis',(0.,0.,1.));
#300=DIRECTION('refdir',(1.,0.,0.));
#301=DIRECTION('center_axis',(0.,0.,1.));
#302=DIRECTION('ref_axis',(-1.,0.,0.));
#303=DIRECTION('center_axis',(0.,0.,1.));
#304=DIRECTION('ref_axis',(-1.,0.,0.));
#305=DIRECTION('',(-0.707106781186548,-8.65956056235493E-17,-0.707106781186548));
#306=DIRECTION('center_axis',(0.,0.,-1.));
#307=DIRECTION('ref_axis',(-1.,0.,0.));
#308=DIRECTION('center_axis',(0.,0.,1.));
#309=DIRECTION('ref_axis',(1.,0.,0.));
#310=DIRECTION('',(1.,0.,0.));
#311=DIRECTION('',(0.,1.,0.));
#312=DIRECTION('',(-1.,0.,0.));
#313=DIRECTION('',(0.,-1.,0.));
#314=DIRECTION('center_axis',(0.,0.,1.));
#315=DIRECTION('ref_axis',(-1.,0.,0.));
#316=DIRECTION('center_axis',(0.,0.,-1.));
#317=DIRECTION('ref_axis',(-1.,0.,0.));
#318=DIRECTION('',(0.,0.,-1.));
#319=DIRECTION('center_axis',(0.,0.,1.));
#320=DIRECTION('ref_axis',(-1.,0.,0.));
#321=DIRECTION('center_axis',(0.,0.,1.));
#322=DIRECTION('ref_axis',(-1.,0.,0.));
#323=DIRECTION('',(-0.707106781186548,-8.65956056235493E-17,-0.707106781186548));
#324=DIRECTION('center_axis',(0.,0.,-1.));
#325=DIRECTION('ref_axis',(-1.,0.,0.));
#326=DIRECTION('center_axis',(0.,0.,-1.));
#327=DIRECTION('ref_axis',(-1.,0.,0.));
#328=DIRECTION('',(0.,0.,-1.));
#329=DIRECTION('center_axis',(0.,0.,1.));
#330=DIRECTION('ref_axis',(-1.,0.,0.));
#331=DIRECTION('center_axis',(0.,-1.,0.));
#332=DIRECTION('ref_axis',(0.,0.,-1.));
#333=DIRECTION('',(0.,0.,-1.));
#334=DIRECTION('',(1.,0.,0.));
#335=DIRECTION('',(0.,0.,1.));
#336=DIRECTION('',(1.,0.,0.));
#337=DIRECTION('center_axis',(0.,0.,1.));
#338=DIRECTION('ref_axis',(0.,-1.,0.));
#339=DIRECTION('',(0.,-1.,0.));
#340=DIRECTION('',(1.,0.,0.));
#341=DIRECTION('',(0.,1.,0.));
#342=DIRECTION('center_axis',(0.,1.,0.));
#343=DIRECTION('ref_axis',(0.,0.,1.));
#344=DIRECTION('',(0.,0.,1.));
#345=DIRECTION('',(-1.,0.,0.));
#346=DIRECTION('',(0.,0.,-1.));
#347=DIRECTION('center_axis',(0.,0.,1.));
#348=DIRECTION('ref_axis',(1.,0.,0.));
#349=DIRECTION('',(0.,1.,0.));
#350=DIRECTION('',(1.,0.,0.));
#351=DIRECTION('',(0.,-1.,0.));
#352=DIRECTION('center_axis',(0.,0.,1.));
#353=DIRECTION('ref_axis',(1.,0.,0.));
#354=DIRECTION('',(0.,-1.,0.));
#355=DIRECTION('',(-1.,0.,0.));
#356=DIRECTION('',(0.,1.,0.));
#357=DIRECTION('center_axis',(1.,0.,0.));
#358=DIRECTION('ref_axis',(0.,1.,0.));
#359=DIRECTION('',(0.,0.,1.));
#360=DIRECTION('',(0.,0.,1.));
#361=DIRECTION('center_axis',(-1.,0.,0.));
#362=DIRECTION('ref_axis',(0.,-1.,0.));
#363=DIRECTION('',(0.,0.,1.));
#364=DIRECTION('',(0.,0.,1.));
#365=DIRECTION('center_axis',(0.,1.,0.));
#366=DIRECTION('ref_axis',(-1.,0.,0.));
#367=DIRECTION('center_axis',(0.,-1.,0.));
#368=DIRECTION('ref_axis',(1.,0.,0.));
#369=CARTESIAN_POINT('',(0.,0.,0.));
#370=CARTESIAN_POINT('Origin',(-7.5,-4.5,7.75));
#371=CARTESIAN_POINT('',(-4.25,-4.5,8.));
#372=CARTESIAN_POINT('Origin',(-7.5,-4.5,8.));
#373=CARTESIAN_POINT('',(-4.75,-4.5,7.5));
#374=CARTESIAN_POINT('',(-4.5,-4.5,7.75));
#375=CARTESIAN_POINT('Origin',(-7.5,-4.5,7.5));
#376=CARTESIAN_POINT('Origin',(-7.5,-14.5,8.));
#377=CARTESIAN_POINT('',(-15.,-29.,8.));
#378=CARTESIAN_POINT('',(0.,-29.,8.));
#379=CARTESIAN_POINT('',(0.,-29.,8.));
#380=CARTESIAN_POINT('',(0.,0.,8.));
#381=CARTESIAN_POINT('',(0.,0.,8.));
#382=CARTESIAN_POINT('',(-15.,0.,8.));
#383=CARTESIAN_POINT('',(-15.,0.,8.));
#384=CARTESIAN_POINT('',(-15.,-29.,8.));
#385=CARTESIAN_POINT('',(-4.25,-24.5,8.));
#386=CARTESIAN_POINT('Origin',(-7.5,-24.5,8.));
#387=CARTESIAN_POINT('Origin',(-7.5,-4.5,8.));
#388=CARTESIAN_POINT('',(-4.75,-4.5,0.));
#389=CARTESIAN_POINT('',(-4.75,-4.5,8.));
#390=CARTESIAN_POINT('Origin',(-7.5,-4.5,0.));
#391=CARTESIAN_POINT('Origin',(-7.5,-24.5,7.75));
#392=CARTESIAN_POINT('',(-4.75,-24.5,7.5));
#393=CARTESIAN_POINT('',(-4.5,-24.5,7.75));
#394=CARTESIAN_POINT('Origin',(-7.5,-24.5,7.5));
#395=CARTESIAN_POINT('Origin',(-7.5,-24.5,8.));
#396=CARTESIAN_POINT('',(-4.75,-24.5,0.));
#397=CARTESIAN_POINT('',(-4.75,-24.5,8.));
#398=CARTESIAN_POINT('Origin',(-7.5,-24.5,0.));
#399=CARTESIAN_POINT('Origin',(-15.,-19.9999998658896,5.00000007450581));
#400=CARTESIAN_POINT('',(-15.,-19.9999998658896,5.00000007450581));
#401=CARTESIAN_POINT('',(-15.,-19.9999998658896,0.));
#402=CARTESIAN_POINT('',(-15.,-19.9999998658896,2.5000000372529));
#403=CARTESIAN_POINT('',(0.,-19.9999998658896,5.00000007450581));
#404=CARTESIAN_POINT('',(-15.,-19.9999998658896,5.00000007450581));
#405=CARTESIAN_POINT('',(0.,-19.9999998658896,0.));
#406=CARTESIAN_POINT('',(0.,-19.9999998658896,2.5000000372529));
#407=CARTESIAN_POINT('',(-11.25,-19.9999998658896,0.));
#408=CARTESIAN_POINT('Origin',(-15.,-9.00000013411045,5.00000007450581));
#409=CARTESIAN_POINT('',(-15.,-9.00000013411045,5.00000007450581));
#410=CARTESIAN_POINT('',(-15.,-4.50000006705523,5.00000007450581));
#411=CARTESIAN_POINT('',(0.,-9.00000013411045,5.00000007450581));
#412=CARTESIAN_POINT('',(-15.,-9.00000013411045,5.00000007450581));
#413=CARTESIAN_POINT('',(0.,-19.0000000670552,5.00000007450581));
#414=CARTESIAN_POINT('Origin',(-15.,-9.00000013411045,0.));
#415=CARTESIAN_POINT('',(-15.,-9.00000013411045,0.));
#416=CARTESIAN_POINT('',(-15.,-9.00000013411045,0.));
#417=CARTESIAN_POINT('',(0.,-9.00000013411045,0.));
#418=CARTESIAN_POINT('',(-11.25,-9.00000013411045,0.));
#419=CARTESIAN_POINT('',(0.,-9.00000013411045,0.));
#420=CARTESIAN_POINT('Origin',(-7.5,-14.5,0.));
#421=CARTESIAN_POINT('',(-15.,0.,0.));
#422=CARTESIAN_POINT('',(-15.,-29.,0.));
#423=CARTESIAN_POINT('',(0.,0.,0.));
#424=CARTESIAN_POINT('',(-15.,0.,0.));
#425=CARTESIAN_POINT('',(0.,0.,0.));
#426=CARTESIAN_POINT('Origin',(-7.5,-14.5,0.));
#427=CARTESIAN_POINT('',(0.,-29.,0.));
#428=CARTESIAN_POINT('',(0.,0.,0.));
#429=CARTESIAN_POINT('',(-15.,-29.,0.));
#430=CARTESIAN_POINT('',(0.,-29.,0.));
#431=CARTESIAN_POINT('',(-15.,-29.,0.));
#432=CARTESIAN_POINT('Origin',(0.,-29.,0.));
#433=CARTESIAN_POINT('',(0.,0.,0.));
#434=CARTESIAN_POINT('',(0.,-29.,0.));
#435=CARTESIAN_POINT('Origin',(-15.,0.,0.));
#436=CARTESIAN_POINT('',(-15.,-29.,0.));
#437=CARTESIAN_POINT('',(-15.,0.,0.));
#438=CARTESIAN_POINT('Origin',(0.,0.,0.));
#439=CARTESIAN_POINT('Origin',(-15.,-29.,0.));
#440=UNCERTAINTY_MEASURE_WITH_UNIT(LENGTH_MEASURE(0.01),#444,
'DISTANCE_ACCURACY_VALUE',
'Maximum model space distance between geometric entities at asserted c
onnectivities');
#441=UNCERTAINTY_MEASURE_WITH_UNIT(LENGTH_MEASURE(0.01),#444,
'DISTANCE_ACCURACY_VALUE',
'Maximum model space distance between geometric entities at asserted c
onnectivities');
#442=(
GEOMETRIC_REPRESENTATION_CONTEXT(3)
GLOBAL_UNCERTAINTY_ASSIGNED_CONTEXT((#440))
GLOBAL_UNIT_ASSIGNED_CONTEXT((#444,#446,#447))
REPRESENTATION_CONTEXT('','3D')
);
#443=(
GEOMETRIC_REPRESENTATION_CONTEXT(3)
GLOBAL_UNCERTAINTY_ASSIGNED_CONTEXT((#441))
GLOBAL_UNIT_ASSIGNED_CONTEXT((#444,#446,#447))
REPRESENTATION_CONTEXT('','3D')
);
#444=(
LENGTH_UNIT()
NAMED_UNIT(*)
SI_UNIT(.MILLI.,.METRE.)
);
#445=(
LENGTH_UNIT()
NAMED_UNIT(*)
SI_UNIT($,.METRE.)
);
#446=(
NAMED_UNIT(*)
PLANE_ANGLE_UNIT()
SI_UNIT($,.RADIAN.)
);
#447=(
NAMED_UNIT(*)
SI_UNIT($,.STERADIAN.)
SOLID_ANGLE_UNIT()
);
#448=SHAPE_DEFINITION_REPRESENTATION(#449,#450);
#449=PRODUCT_DEFINITION_SHAPE('',$,#452);
#450=SHAPE_REPRESENTATION('',(#278),#442);
#451=PRODUCT_DEFINITION_CONTEXT('part definition',#456,'design');
#452=PRODUCT_DEFINITION('Guide num\X\E9ro 2','Guide num\X\E9ro 2 v1',#453,
#451);
#453=PRODUCT_DEFINITION_FORMATION('',$,#458);
#454=PRODUCT_RELATED_PRODUCT_CATEGORY('Guide num\X\E9ro 2 v1',
'Guide num\X\E9ro 2 v1',(#458));
#455=APPLICATION_PROTOCOL_DEFINITION('international standard',
'automotive_design',2009,#456);
#456=APPLICATION_CONTEXT(
'Core Data for Automotive Mechanical Design Process');
#457=PRODUCT_CONTEXT('part definition',#456,'mechanical');
#458=PRODUCT('Guide num\X\E9ro 2','Guide num\X\E9ro 2 v1',$,(#457));
#459=PRESENTATION_STYLE_ASSIGNMENT((#460));
#460=SURFACE_STYLE_USAGE(.BOTH.,#461);
#461=SURFACE_SIDE_STYLE('',(#462));
#462=SURFACE_STYLE_FILL_AREA(#463);
#463=FILL_AREA_STYLE('Acier - Satin\X\E9',(#464));
#464=FILL_AREA_STYLE_COLOUR('Acier - Satin\X\E9',#465);
#465=COLOUR_RGB('Acier - Satin\X\E9',0.627450980392157,0.627450980392157,
0.627450980392157);
ENDSEC;
END-ISO-10303-21;
