ISO-10303-21;
HEADER;
/* Generated by software containing ST-Developer
 * from STEP Tools, Inc. (www.steptools.com) 
 */

FILE_DESCRIPTION(
/* description */ (''),
/* implementation_level */ '2;1');

FILE_NAME(
/* name */ 'Composant2.step',
/* time_stamp */ '2024-03-14T21:13:27+01:00',
/* author */ (''),
/* organization */ (''),
/* preprocessor_version */ 'ST-DEVELOPER v20',
/* originating_system */ 'Autodesk Translation Framework v12.20.1.177',

/* authorisation */ '');

FILE_SCHEMA (('AUTOMOTIVE_DESIGN { 1 0 10303 214 3 1 1 }'));
ENDSEC;

DATA;
#10=MECHANICAL_DESIGN_GEOMETRIC_PRESENTATION_REPRESENTATION('',(#13),#323);
#11=SHAPE_REPRESENTATION_RELATIONSHIP('SRR','None',#330,#12);
#12=ADVANCED_BREP_SHAPE_REPRESENTATION('',(#14),#322);
#13=STYLED_ITEM('',(#339),#14);
#14=MANIFOLD_SOLID_BREP('Corps1',#151);
#15=FACE_BOUND('',#35,.T.);
#16=FACE_BOUND('',#36,.T.);
#17=FACE_BOUND('',#39,.T.);
#18=FACE_BOUND('',#40,.T.);
#19=PLANE('',#169);
#20=PLANE('',#170);
#21=PLANE('',#174);
#22=PLANE('',#175);
#23=PLANE('',#176);
#24=FACE_OUTER_BOUND('',#32,.T.);
#25=FACE_OUTER_BOUND('',#33,.T.);
#26=FACE_OUTER_BOUND('',#34,.T.);
#27=FACE_OUTER_BOUND('',#37,.T.);
#28=FACE_OUTER_BOUND('',#38,.T.);
#29=FACE_OUTER_BOUND('',#41,.T.);
#30=FACE_OUTER_BOUND('',#42,.T.);
#31=FACE_OUTER_BOUND('',#43,.T.);
#32=EDGE_LOOP('',(#104,#105,#106,#107));
#33=EDGE_LOOP('',(#108,#109,#110,#111));
#34=EDGE_LOOP('',(#112,#113,#114,#115));
#35=EDGE_LOOP('',(#116));
#36=EDGE_LOOP('',(#117));
#37=EDGE_LOOP('',(#118,#119,#120,#121));
#38=EDGE_LOOP('',(#122,#123,#124,#125));
#39=EDGE_LOOP('',(#126));
#40=EDGE_LOOP('',(#127));
#41=EDGE_LOOP('',(#128,#129,#130,#131));
#42=EDGE_LOOP('',(#132,#133,#134,#135));
#43=EDGE_LOOP('',(#136,#137,#138,#139));
#44=CIRCLE('',#166,2.75);
#45=CIRCLE('',#168,2.75);
#46=CIRCLE('',#172,12.5);
#47=CIRCLE('',#173,12.5);
#48=LINE('',#253,#60);
#49=LINE('',#292,#61);
#50=LINE('',#297,#62);
#51=LINE('',#299,#63);
#52=LINE('',#301,#64);
#53=LINE('',#302,#65);
#54=LINE('',#305,#66);
#55=LINE('',#307,#67);
#56=LINE('',#308,#68);
#57=LINE('',#314,#69);
#58=LINE('',#316,#70);
#59=LINE('',#317,#71);
#60=VECTOR('',#181,2.75);
#61=VECTOR('',#186,2.75);
#62=VECTOR('',#191,10.);
#63=VECTOR('',#192,10.);
#64=VECTOR('',#193,10.);
#65=VECTOR('',#194,10.);
#66=VECTOR('',#197,10.);
#67=VECTOR('',#198,10.);
#68=VECTOR('',#199,10.);
#69=VECTOR('',#206,10.);
#70=VECTOR('',#209,10.);
#71=VECTOR('',#210,10.);
#72=B_SPLINE_CURVE_WITH_KNOTS('',3,(#218,#219,#220,#221,#222,#223,#224,
#225,#226,#227,#228,#229,#230,#231,#232,#233,#234,#235,#236,#237,#238,#239,
#240,#241,#242,#243,#244,#245,#246,#247,#248,#249,#250,#251),
 .UNSPECIFIED.,.T.,.F.,(4,2,2,2,2,2,2,2,2,2,2,2,2,2,2,2,4),(0.,0.103960026210168,
0.207920052420336,0.311871480400635,0.415822908380933,0.519774336361232,
0.623725764341531,0.727685790551699,0.831645816761867,0.935605842972035,
1.0395658691822,1.1435172971625,1.2474687251428,1.3514201531231,1.4553715811034,
1.55933160731357,1.66329163352373),.UNSPECIFIED.);
#73=B_SPLINE_CURVE_WITH_KNOTS('',3,(#257,#258,#259,#260,#261,#262,#263,
#264,#265,#266,#267,#268,#269,#270,#271,#272,#273,#274,#275,#276,#277,#278,
#279,#280,#281,#282,#283,#284,#285,#286,#287,#288,#289,#290),
 .UNSPECIFIED.,.T.,.F.,(4,2,2,2,2,2,2,2,2,2,2,2,2,2,2,2,4),(0.,0.103960026210168,
0.207920052420336,0.311871480400635,0.415822908380934,0.519774336361233,
0.623725764341531,0.727685790551699,0.831645816761867,0.935605842972035,
1.0395658691822,1.1435172971625,1.2474687251428,1.3514201531231,1.4553715811034,
1.55933160731357,1.66329163352373),.UNSPECIFIED.);
#74=VERTEX_POINT('',#217);
#75=VERTEX_POINT('',#252);
#76=VERTEX_POINT('',#256);
#77=VERTEX_POINT('',#291);
#78=VERTEX_POINT('',#295);
#79=VERTEX_POINT('',#296);
#80=VERTEX_POINT('',#298);
#81=VERTEX_POINT('',#300);
#82=VERTEX_POINT('',#304);
#83=VERTEX_POINT('',#306);
#84=VERTEX_POINT('',#310);
#85=VERTEX_POINT('',#312);
#86=EDGE_CURVE('',#74,#74,#72,.T.);
#87=EDGE_CURVE('',#74,#75,#48,.T.);
#88=EDGE_CURVE('',#75,#75,#44,.T.);
#89=EDGE_CURVE('',#76,#76,#73,.T.);
#90=EDGE_CURVE('',#76,#77,#49,.T.);
#91=EDGE_CURVE('',#77,#77,#45,.T.);
#92=EDGE_CURVE('',#78,#79,#50,.T.);
#93=EDGE_CURVE('',#78,#80,#51,.T.);
#94=EDGE_CURVE('',#81,#80,#52,.T.);
#95=EDGE_CURVE('',#79,#81,#53,.T.);
#96=EDGE_CURVE('',#79,#82,#54,.T.);
#97=EDGE_CURVE('',#83,#81,#55,.T.);
#98=EDGE_CURVE('',#82,#83,#56,.T.);
#99=EDGE_CURVE('',#84,#82,#46,.T.);
#100=EDGE_CURVE('',#85,#83,#47,.T.);
#101=EDGE_CURVE('',#84,#85,#57,.T.);
#102=EDGE_CURVE('',#84,#78,#58,.T.);
#103=EDGE_CURVE('',#80,#85,#59,.T.);
#104=ORIENTED_EDGE('',*,*,#86,.F.);
#105=ORIENTED_EDGE('',*,*,#87,.T.);
#106=ORIENTED_EDGE('',*,*,#88,.F.);
#107=ORIENTED_EDGE('',*,*,#87,.F.);
#108=ORIENTED_EDGE('',*,*,#89,.F.);
#109=ORIENTED_EDGE('',*,*,#90,.T.);
#110=ORIENTED_EDGE('',*,*,#91,.F.);
#111=ORIENTED_EDGE('',*,*,#90,.F.);
#112=ORIENTED_EDGE('',*,*,#92,.F.);
#113=ORIENTED_EDGE('',*,*,#93,.T.);
#114=ORIENTED_EDGE('',*,*,#94,.F.);
#115=ORIENTED_EDGE('',*,*,#95,.F.);
#116=ORIENTED_EDGE('',*,*,#88,.T.);
#117=ORIENTED_EDGE('',*,*,#91,.T.);
#118=ORIENTED_EDGE('',*,*,#96,.F.);
#119=ORIENTED_EDGE('',*,*,#95,.T.);
#120=ORIENTED_EDGE('',*,*,#97,.F.);
#121=ORIENTED_EDGE('',*,*,#98,.F.);
#122=ORIENTED_EDGE('',*,*,#99,.T.);
#123=ORIENTED_EDGE('',*,*,#98,.T.);
#124=ORIENTED_EDGE('',*,*,#100,.F.);
#125=ORIENTED_EDGE('',*,*,#101,.F.);
#126=ORIENTED_EDGE('',*,*,#86,.T.);
#127=ORIENTED_EDGE('',*,*,#89,.T.);
#128=ORIENTED_EDGE('',*,*,#102,.F.);
#129=ORIENTED_EDGE('',*,*,#101,.T.);
#130=ORIENTED_EDGE('',*,*,#103,.F.);
#131=ORIENTED_EDGE('',*,*,#93,.F.);
#132=ORIENTED_EDGE('',*,*,#102,.T.);
#133=ORIENTED_EDGE('',*,*,#92,.T.);
#134=ORIENTED_EDGE('',*,*,#96,.T.);
#135=ORIENTED_EDGE('',*,*,#99,.F.);
#136=ORIENTED_EDGE('',*,*,#103,.T.);
#137=ORIENTED_EDGE('',*,*,#100,.T.);
#138=ORIENTED_EDGE('',*,*,#97,.T.);
#139=ORIENTED_EDGE('',*,*,#94,.T.);
#140=CYLINDRICAL_SURFACE('',#165,2.75);
#141=CYLINDRICAL_SURFACE('',#167,2.75);
#142=CYLINDRICAL_SURFACE('',#171,12.5);
#143=ADVANCED_FACE('',(#24),#140,.F.);
#144=ADVANCED_FACE('',(#25),#141,.F.);
#145=ADVANCED_FACE('',(#26,#15,#16),#19,.T.);
#146=ADVANCED_FACE('',(#27),#20,.T.);
#147=ADVANCED_FACE('',(#28,#17,#18),#142,.F.);
#148=ADVANCED_FACE('',(#29),#21,.T.);
#149=ADVANCED_FACE('',(#30),#22,.T.);
#150=ADVANCED_FACE('',(#31),#23,.F.);
#151=CLOSED_SHELL('',(#143,#144,#145,#146,#147,#148,#149,#150));
#152=DERIVED_UNIT_ELEMENT(#154,1.);
#153=DERIVED_UNIT_ELEMENT(#325,-3.);
#154=(
MASS_UNIT()
NAMED_UNIT(*)
SI_UNIT(.KILO.,.GRAM.)
);
#155=DERIVED_UNIT((#152,#153));
#156=MEASURE_REPRESENTATION_ITEM('density measure',
POSITIVE_RATIO_MEASURE(7850.),#155);
#157=PROPERTY_DEFINITION_REPRESENTATION(#162,#159);
#158=PROPERTY_DEFINITION_REPRESENTATION(#163,#160);
#159=REPRESENTATION('material name',(#161),#322);
#160=REPRESENTATION('density',(#156),#322);
#161=DESCRIPTIVE_REPRESENTATION_ITEM('Acier','Acier');
#162=PROPERTY_DEFINITION('material property','material name',#332);
#163=PROPERTY_DEFINITION('material property','density of part',#332);
#164=AXIS2_PLACEMENT_3D('',#215,#177,#178);
#165=AXIS2_PLACEMENT_3D('',#216,#179,#180);
#166=AXIS2_PLACEMENT_3D('',#254,#182,#183);
#167=AXIS2_PLACEMENT_3D('',#255,#184,#185);
#168=AXIS2_PLACEMENT_3D('',#293,#187,#188);
#169=AXIS2_PLACEMENT_3D('',#294,#189,#190);
#170=AXIS2_PLACEMENT_3D('',#303,#195,#196);
#171=AXIS2_PLACEMENT_3D('',#309,#200,#201);
#172=AXIS2_PLACEMENT_3D('',#311,#202,#203);
#173=AXIS2_PLACEMENT_3D('',#313,#204,#205);
#174=AXIS2_PLACEMENT_3D('',#315,#207,#208);
#175=AXIS2_PLACEMENT_3D('',#318,#211,#212);
#176=AXIS2_PLACEMENT_3D('',#319,#213,#214);
#177=DIRECTION('axis',(0.,0.,1.));
#178=DIRECTION('refdir',(1.,0.,0.));
#179=DIRECTION('center_axis',(-1.2335811384724E-16,1.,0.));
#180=DIRECTION('ref_axis',(-1.,-1.2335811384724E-16,0.));
#181=DIRECTION('',(-1.2335811384724E-16,1.,0.));
#182=DIRECTION('center_axis',(0.,-1.,0.));
#183=DIRECTION('ref_axis',(-1.,-1.2335811384724E-16,0.));
#184=DIRECTION('center_axis',(-1.2335811384724E-16,1.,0.));
#185=DIRECTION('ref_axis',(-1.,-1.2335811384724E-16,0.));
#186=DIRECTION('',(-1.2335811384724E-16,1.,0.));
#187=DIRECTION('center_axis',(0.,-1.,0.));
#188=DIRECTION('ref_axis',(-1.,-1.2335811384724E-16,0.));
#189=DIRECTION('center_axis',(0.,1.,0.));
#190=DIRECTION('ref_axis',(1.,0.,0.));
#191=DIRECTION('',(-1.,0.,0.));
#192=DIRECTION('',(0.,0.,-1.));
#193=DIRECTION('',(1.,0.,0.));
#194=DIRECTION('',(0.,0.,-1.));
#195=DIRECTION('center_axis',(-1.,0.,0.));
#196=DIRECTION('ref_axis',(0.,1.,0.));
#197=DIRECTION('',(0.,-1.,0.));
#198=DIRECTION('',(0.,1.,0.));
#199=DIRECTION('',(0.,0.,-1.));
#200=DIRECTION('center_axis',(0.,0.,-1.));
#201=DIRECTION('ref_axis',(-1.,0.,0.));
#202=DIRECTION('center_axis',(0.,0.,1.));
#203=DIRECTION('ref_axis',(-1.,0.,0.));
#204=DIRECTION('center_axis',(0.,0.,1.));
#205=DIRECTION('ref_axis',(-1.,0.,0.));
#206=DIRECTION('',(0.,0.,-1.));
#207=DIRECTION('center_axis',(1.,1.10745438865352E-16,0.));
#208=DIRECTION('ref_axis',(1.10745438865352E-16,-1.,0.));
#209=DIRECTION('',(-1.10745438865352E-16,1.,0.));
#210=DIRECTION('',(1.10745438865352E-16,-1.,0.));
#211=DIRECTION('center_axis',(0.,0.,1.));
#212=DIRECTION('ref_axis',(-1.,0.,0.));
#213=DIRECTION('center_axis',(0.,0.,1.));
#214=DIRECTION('ref_axis',(-1.,0.,0.));
#215=CARTESIAN_POINT('',(0.,0.,0.));
#216=CARTESIAN_POINT('Origin',(9.79717450267078E-15,-80.0000008940697,-19.0000002831221));
#217=CARTESIAN_POINT('',(2.75000000000001,-60.3062524958125,-19.0000002831221));
#218=CARTESIAN_POINT('Ctrl Pts',(2.75000000000001,-60.3062524958125,-19.0000002831221));
#219=CARTESIAN_POINT('Ctrl Pts',(2.75000000000001,-60.3062524958125,-19.3465337038226));
#220=CARTESIAN_POINT('Ctrl Pts',(2.6805124242227,-60.2899459120792,-19.7153590368825));
#221=CARTESIAN_POINT('Ctrl Pts',(2.39952022744373,-60.2316313299827,-20.3925476605742));
#222=CARTESIAN_POINT('Ctrl Pts',(2.18807453042367,-60.1905286076389,-20.7010130492244));
#223=CARTESIAN_POINT('Ctrl Pts',(1.70103290782972,-60.1138289626604,-21.1880546718184));
#224=CARTESIAN_POINT('Ctrl Pts',(1.39255902733826,-60.0731647527108,-21.3995161206979));
#225=CARTESIAN_POINT('Ctrl Pts',(0.715340667055502,-60.0158603609107,-21.6805197680981));
#226=CARTESIAN_POINT('Ctrl Pts',(0.346504759934337,-60.0000008940697,-21.7500002831221));
#227=CARTESIAN_POINT('Ctrl Pts',(-0.346504759934322,-60.0000008940697,-21.7500002831221));
#228=CARTESIAN_POINT('Ctrl Pts',(-0.715340667055486,-60.0158603609107,-21.6805197680981));
#229=CARTESIAN_POINT('Ctrl Pts',(-1.39255902733825,-60.0731647527108,-21.3995161206979));
#230=CARTESIAN_POINT('Ctrl Pts',(-1.70103290782971,-60.1138289626604,-21.1880546718184));
#231=CARTESIAN_POINT('Ctrl Pts',(-2.18807453042366,-60.1905286076389,-20.7010130492244));
#232=CARTESIAN_POINT('Ctrl Pts',(-2.39952022744372,-60.2316313299827,-20.3925476605742));
#233=CARTESIAN_POINT('Ctrl Pts',(-2.68051242422269,-60.2899459120792,-19.7153590368825));
#234=CARTESIAN_POINT('Ctrl Pts',(-2.74999999999999,-60.3062524958125,-19.3465337038226));
#235=CARTESIAN_POINT('Ctrl Pts',(-2.74999999999999,-60.3062524958125,-18.6534668624215));
#236=CARTESIAN_POINT('Ctrl Pts',(-2.68051242422268,-60.2899459120792,-18.2846415293616));
#237=CARTESIAN_POINT('Ctrl Pts',(-2.39952022744372,-60.2316313299827,-17.6074529056699));
#238=CARTESIAN_POINT('Ctrl Pts',(-2.18807453042366,-60.1905286076389,-17.2989875170197));
#239=CARTESIAN_POINT('Ctrl Pts',(-1.70103290782971,-60.1138289626604,-16.8119458944258));
#240=CARTESIAN_POINT('Ctrl Pts',(-1.39255902733825,-60.0731647527108,-16.6004844455462));
#241=CARTESIAN_POINT('Ctrl Pts',(-0.715340667055488,-60.0158603609107,-16.319480798146));
#242=CARTESIAN_POINT('Ctrl Pts',(-0.346504759934323,-60.0000008940697,-16.2500002831221));
#243=CARTESIAN_POINT('Ctrl Pts',(0.346504759934335,-60.0000008940697,-16.2500002831221));
#244=CARTESIAN_POINT('Ctrl Pts',(0.715340667055499,-60.0158603609107,-16.319480798146));
#245=CARTESIAN_POINT('Ctrl Pts',(1.39255902733826,-60.0731647527108,-16.6004844455462));
#246=CARTESIAN_POINT('Ctrl Pts',(1.70103290782972,-60.1138289626604,-16.8119458944258));
#247=CARTESIAN_POINT('Ctrl Pts',(2.18807453042367,-60.1905286076389,-17.2989875170197));
#248=CARTESIAN_POINT('Ctrl Pts',(2.39952022744373,-60.2316313299827,-17.6074529056699));
#249=CARTESIAN_POINT('Ctrl Pts',(2.6805124242227,-60.2899459120792,-18.2846415293616));
#250=CARTESIAN_POINT('Ctrl Pts',(2.75000000000001,-60.3062524958125,-18.6534668624215));
#251=CARTESIAN_POINT('Ctrl Pts',(2.75000000000001,-60.3062524958125,-19.0000002831221));
#252=CARTESIAN_POINT('',(2.75,-35.0000008940697,-19.0000002831221));
#253=CARTESIAN_POINT('',(2.75000000000001,-80.0000008940697,-19.0000002831221));
#254=CARTESIAN_POINT('Origin',(4.24605926925425E-15,-35.,-19.0000002831221));
#255=CARTESIAN_POINT('Origin',(9.79717450267078E-15,-80.0000008940697,-6.00000008940697));
#256=CARTESIAN_POINT('',(2.75000000000001,-60.3062524958125,-6.00000008940697));
#257=CARTESIAN_POINT('Ctrl Pts',(2.75000000000001,-60.3062524958125,-6.00000008940697));
#258=CARTESIAN_POINT('Ctrl Pts',(2.75000000000001,-60.3062524958125,-6.34653351010753));
#259=CARTESIAN_POINT('Ctrl Pts',(2.6805124242227,-60.2899459120792,-6.71535884316743));
#260=CARTESIAN_POINT('Ctrl Pts',(2.39952022744373,-60.2316313299827,-7.39254746685908));
#261=CARTESIAN_POINT('Ctrl Pts',(2.18807453042367,-60.1905286076389,-7.70101285550932));
#262=CARTESIAN_POINT('Ctrl Pts',(1.70103290782972,-60.1138289626604,-8.18805447810326));
#263=CARTESIAN_POINT('Ctrl Pts',(1.39255902733826,-60.0731647527108,-8.3995159269828));
#264=CARTESIAN_POINT('Ctrl Pts',(0.715340667055502,-60.0158603609107,-8.68051957438301));
#265=CARTESIAN_POINT('Ctrl Pts',(0.346504759934337,-60.0000008940697,-8.75000008940697));
#266=CARTESIAN_POINT('Ctrl Pts',(-0.346504759934322,-60.0000008940697,-8.75000008940697));
#267=CARTESIAN_POINT('Ctrl Pts',(-0.715340667055485,-60.0158603609107,-8.68051957438301));
#268=CARTESIAN_POINT('Ctrl Pts',(-1.39255902733825,-60.0731647527108,-8.39951592698281));
#269=CARTESIAN_POINT('Ctrl Pts',(-1.70103290782971,-60.1138289626604,-8.18805447810326));
#270=CARTESIAN_POINT('Ctrl Pts',(-2.18807453042366,-60.1905286076389,-7.70101285550932));
#271=CARTESIAN_POINT('Ctrl Pts',(-2.39952022744372,-60.2316313299827,-7.39254746685909));
#272=CARTESIAN_POINT('Ctrl Pts',(-2.68051242422268,-60.2899459120792,-6.71535884316743));
#273=CARTESIAN_POINT('Ctrl Pts',(-2.74999999999999,-60.3062524958125,-6.34653351010753));
#274=CARTESIAN_POINT('Ctrl Pts',(-2.74999999999999,-60.3062524958125,-5.65346666870641));
#275=CARTESIAN_POINT('Ctrl Pts',(-2.68051242422268,-60.2899459120792,-5.2846413356465));
#276=CARTESIAN_POINT('Ctrl Pts',(-2.39952022744372,-60.2316313299827,-4.60745271195485));
#277=CARTESIAN_POINT('Ctrl Pts',(-2.18807453042366,-60.1905286076389,-4.29898732330462));
#278=CARTESIAN_POINT('Ctrl Pts',(-1.70103290782971,-60.1138289626604,-3.81194570071067));
#279=CARTESIAN_POINT('Ctrl Pts',(-1.39255902733825,-60.0731647527108,-3.60048425183113));
#280=CARTESIAN_POINT('Ctrl Pts',(-0.715340667055488,-60.0158603609107,-3.31948060443093));
#281=CARTESIAN_POINT('Ctrl Pts',(-0.346504759934324,-60.0000008940697,-3.25000008940697));
#282=CARTESIAN_POINT('Ctrl Pts',(0.346504759934336,-60.0000008940697,-3.25000008940697));
#283=CARTESIAN_POINT('Ctrl Pts',(0.7153406670555,-60.0158603609107,-3.31948060443092));
#284=CARTESIAN_POINT('Ctrl Pts',(1.39255902733826,-60.0731647527108,-3.60048425183113));
#285=CARTESIAN_POINT('Ctrl Pts',(1.70103290782972,-60.1138289626604,-3.81194570071067));
#286=CARTESIAN_POINT('Ctrl Pts',(2.18807453042367,-60.1905286076389,-4.29898732330462));
#287=CARTESIAN_POINT('Ctrl Pts',(2.39952022744373,-60.2316313299827,-4.60745271195485));
#288=CARTESIAN_POINT('Ctrl Pts',(2.6805124242227,-60.2899459120792,-5.28464133564651));
#289=CARTESIAN_POINT('Ctrl Pts',(2.75000000000001,-60.3062524958125,-5.65346666870641));
#290=CARTESIAN_POINT('Ctrl Pts',(2.75000000000001,-60.3062524958125,-6.00000008940697));
#291=CARTESIAN_POINT('',(2.75,-35.0000008940697,-6.00000008940697));
#292=CARTESIAN_POINT('',(2.75000000000001,-80.0000008940697,-6.00000008940697));
#293=CARTESIAN_POINT('Origin',(4.24605926925425E-15,-35.,-6.00000008940697));
#294=CARTESIAN_POINT('Origin',(-10.,-35.,0.));
#295=CARTESIAN_POINT('',(10.,-35.,0.));
#296=CARTESIAN_POINT('',(-10.,-35.,0.));
#297=CARTESIAN_POINT('',(10.,-35.,0.));
#298=CARTESIAN_POINT('',(10.,-35.,-25.));
#299=CARTESIAN_POINT('',(10.,-35.,0.));
#300=CARTESIAN_POINT('',(-10.,-35.,-25.));
#301=CARTESIAN_POINT('',(10.,-35.,-25.));
#302=CARTESIAN_POINT('',(-10.,-35.,0.));
#303=CARTESIAN_POINT('Origin',(-10.,-65.0000009685755,0.));
#304=CARTESIAN_POINT('',(-10.,-65.0000009685755,0.));
#305=CARTESIAN_POINT('',(-10.,-35.,0.));
#306=CARTESIAN_POINT('',(-10.,-65.0000009685755,-25.));
#307=CARTESIAN_POINT('',(-10.,-35.,-25.));
#308=CARTESIAN_POINT('',(-10.,-65.0000009685755,0.));
#309=CARTESIAN_POINT('Origin',(0.,-72.5000008940697,0.));
#310=CARTESIAN_POINT('',(10.,-65.0000008940697,0.));
#311=CARTESIAN_POINT('Origin',(0.,-72.5000008940697,0.));
#312=CARTESIAN_POINT('',(10.,-65.0000008940697,-25.));
#313=CARTESIAN_POINT('Origin',(0.,-72.5000008940697,-25.));
#314=CARTESIAN_POINT('',(10.,-65.0000008940697,0.));
#315=CARTESIAN_POINT('Origin',(10.,-35.,0.));
#316=CARTESIAN_POINT('',(10.,-55.05,0.));
#317=CARTESIAN_POINT('',(10.,-55.05,-25.));
#318=CARTESIAN_POINT('Origin',(-2.79396772384644E-8,-50.0000004842877,0.));
#319=CARTESIAN_POINT('Origin',(-2.79396772384644E-8,-50.0000004842877,-25.));
#320=UNCERTAINTY_MEASURE_WITH_UNIT(LENGTH_MEASURE(0.01),#324,
'DISTANCE_ACCURACY_VALUE',
'Maximum model space distance between geometric entities at asserted c
onnectivities');
#321=UNCERTAINTY_MEASURE_WITH_UNIT(LENGTH_MEASURE(0.01),#324,
'DISTANCE_ACCURACY_VALUE',
'Maximum model space distance between geometric entities at asserted c
onnectivities');
#322=(
GEOMETRIC_REPRESENTATION_CONTEXT(3)
GLOBAL_UNCERTAINTY_ASSIGNED_CONTEXT((#320))
GLOBAL_UNIT_ASSIGNED_CONTEXT((#324,#326,#327))
REPRESENTATION_CONTEXT('','3D')
);
#323=(
GEOMETRIC_REPRESENTATION_CONTEXT(3)
GLOBAL_UNCERTAINTY_ASSIGNED_CONTEXT((#321))
GLOBAL_UNIT_ASSIGNED_CONTEXT((#324,#326,#327))
REPRESENTATION_CONTEXT('','3D')
);
#324=(
LENGTH_UNIT()
NAMED_UNIT(*)
SI_UNIT(.MILLI.,.METRE.)
);
#325=(
LENGTH_UNIT()
NAMED_UNIT(*)
SI_UNIT($,.METRE.)
);
#326=(
NAMED_UNIT(*)
PLANE_ANGLE_UNIT()
SI_UNIT($,.RADIAN.)
);
#327=(
NAMED_UNIT(*)
SI_UNIT($,.STERADIAN.)
SOLID_ANGLE_UNIT()
);
#328=SHAPE_DEFINITION_REPRESENTATION(#329,#330);
#329=PRODUCT_DEFINITION_SHAPE('',$,#332);
#330=SHAPE_REPRESENTATION('',(#164),#322);
#331=PRODUCT_DEFINITION_CONTEXT('part definition',#336,'design');
#332=PRODUCT_DEFINITION('FusionComponent','FusionComponent',#333,#331);
#333=PRODUCT_DEFINITION_FORMATION('',$,#338);
#334=PRODUCT_RELATED_PRODUCT_CATEGORY('FusionComponent',
'FusionComponent',(#338));
#335=APPLICATION_PROTOCOL_DEFINITION('international standard',
'automotive_design',2009,#336);
#336=APPLICATION_CONTEXT(
'Core Data for Automotive Mechanical Design Process');
#337=PRODUCT_CONTEXT('part definition',#336,'mechanical');
#338=PRODUCT('FusionComponent','FusionComponent',$,(#337));
#339=PRESENTATION_STYLE_ASSIGNMENT((#340));
#340=SURFACE_STYLE_USAGE(.BOTH.,#341);
#341=SURFACE_SIDE_STYLE('',(#342));
#342=SURFACE_STYLE_FILL_AREA(#343);
#343=FILL_AREA_STYLE('Acier - Satin\X\E9',(#344));
#344=FILL_AREA_STYLE_COLOUR('Acier - Satin\X\E9',#345);
#345=COLOUR_RGB('Acier - Satin\X\E9',0.627450980392157,0.627450980392157,
0.627450980392157);
ENDSEC;
END-ISO-10303-21;
