ISO-10303-21;
HEADER;
/* Generated by software containing ST-Developer
 * from STEP Tools, Inc. (www.steptools.com) 
 */

FILE_DESCRIPTION(
/* description */ (''),
/* implementation_level */ '2;1');

FILE_NAME(
/* name */ 'Cale entretubes v1.step',
/* time_stamp */ '2024-03-14T21:13:47+01:00',
/* author */ (''),
/* organization */ (''),
/* preprocessor_version */ 'ST-DEVELOPER v20',
/* originating_system */ 'Autodesk Translation Framework v12.20.1.177',

/* authorisation */ '');

FILE_SCHEMA (('AUTOMOTIVE_DESIGN { 1 0 10303 214 3 1 1 }'));
ENDSEC;

DATA;
#10=MECHANICAL_DESIGN_GEOMETRIC_PRESENTATION_REPRESENTATION('',(#13),#417);
#11=SHAPE_REPRESENTATION_RELATIONSHIP('SRR','None',#424,#12);
#12=ADVANCED_BREP_SHAPE_REPRESENTATION('',(#14),#416);
#13=STYLED_ITEM('',(#433),#14);
#14=MANIFOLD_SOLID_BREP('Corps1',#169);
#15=PLANE('',#188);
#16=PLANE('',#192);
#17=PLANE('',#193);
#18=PLANE('',#194);
#19=FACE_BOUND('',#38,.T.);
#20=FACE_BOUND('',#39,.T.);
#21=FACE_BOUND('',#42,.T.);
#22=FACE_BOUND('',#43,.T.);
#23=CIRCLE('',#186,27.5);
#24=CIRCLE('',#187,27.5);
#25=CIRCLE('',#190,12.5);
#26=CIRCLE('',#191,12.5);
#27=FACE_OUTER_BOUND('',#35,.T.);
#28=FACE_OUTER_BOUND('',#36,.T.);
#29=FACE_OUTER_BOUND('',#37,.T.);
#30=FACE_OUTER_BOUND('',#40,.T.);
#31=FACE_OUTER_BOUND('',#41,.T.);
#32=FACE_OUTER_BOUND('',#44,.T.);
#33=FACE_OUTER_BOUND('',#45,.T.);
#34=FACE_OUTER_BOUND('',#46,.T.);
#35=EDGE_LOOP('',(#113,#114,#115,#116,#117,#118));
#36=EDGE_LOOP('',(#119,#120,#121,#122,#123,#124));
#37=EDGE_LOOP('',(#125,#126,#127,#128));
#38=EDGE_LOOP('',(#129,#130));
#39=EDGE_LOOP('',(#131,#132));
#40=EDGE_LOOP('',(#133,#134,#135,#136));
#41=EDGE_LOOP('',(#137,#138,#139,#140));
#42=EDGE_LOOP('',(#141,#142));
#43=EDGE_LOOP('',(#143,#144));
#44=EDGE_LOOP('',(#145,#146,#147,#148));
#45=EDGE_LOOP('',(#149,#150,#151,#152));
#46=EDGE_LOOP('',(#153,#154,#155,#156));
#47=LINE('',#272,#57);
#48=LINE('',#350,#58);
#49=LINE('',#393,#59);
#50=LINE('',#396,#60);
#51=LINE('',#399,#61);
#52=LINE('',#401,#62);
#53=LINE('',#402,#63);
#54=LINE('',#408,#64);
#55=LINE('',#410,#65);
#56=LINE('',#411,#66);
#57=VECTOR('',#199,2.75);
#58=VECTOR('',#202,2.75);
#59=VECTOR('',#207,10.);
#60=VECTOR('',#210,10.);
#61=VECTOR('',#213,10.);
#62=VECTOR('',#214,10.);
#63=VECTOR('',#215,10.);
#64=VECTOR('',#222,10.);
#65=VECTOR('',#225,10.);
#66=VECTOR('',#226,10.);
#67=B_SPLINE_CURVE_WITH_KNOTS('',3,(#235,#236,#237,#238,#239,#240,#241,
#242,#243,#244,#245,#246,#247,#248,#249,#250,#251,#252),.UNSPECIFIED.,.F.,
 .F.,(4,2,2,2,2,2,2,2,4),(0.,0.103960026210168,0.207920052420336,0.311871480400635,
0.415822908380934,0.519774336361233,0.623725764341532,0.7276857905517,0.831645816761867),
 .UNSPECIFIED.);
#68=B_SPLINE_CURVE_WITH_KNOTS('',3,(#253,#254,#255,#256,#257,#258,#259,
#260,#261,#262,#263,#264,#265,#266,#267,#268,#269,#270),.UNSPECIFIED.,.F.,
 .F.,(4,2,2,2,2,2,2,2,4),(0.831645816761867,0.935605842972035,1.0395658691822,
1.1435172971625,1.2474687251428,1.3514201531231,1.4553715811034,1.55933160731357,
1.66329163352373),.UNSPECIFIED.);
#69=B_SPLINE_CURVE_WITH_KNOTS('',3,(#274,#275,#276,#277,#278,#279,#280,
#281,#282,#283,#284,#285,#286,#287,#288,#289,#290,#291),.UNSPECIFIED.,.F.,
 .F.,(4,2,2,2,2,2,2,2,4),(0.,0.103663401058332,0.207326802116664,0.310989850329907,
0.414652898543151,0.518315946756394,0.621978994969637,0.725642396027969,
0.829305797086301),.UNSPECIFIED.);
#70=B_SPLINE_CURVE_WITH_KNOTS('',3,(#292,#293,#294,#295,#296,#297,#298,
#299,#300,#301,#302,#303,#304,#305,#306,#307,#308,#309),.UNSPECIFIED.,.F.,
 .F.,(4,2,2,2,2,2,2,2,4),(0.829305797086301,0.932969198144633,1.03663259920297,
1.14029564741621,1.24395869562945,1.3476217438427,1.45128479205594,1.55494819311427,
1.6586115941726),.UNSPECIFIED.);
#71=B_SPLINE_CURVE_WITH_KNOTS('',3,(#313,#314,#315,#316,#317,#318,#319,
#320,#321,#322,#323,#324,#325,#326,#327,#328,#329,#330),.UNSPECIFIED.,.F.,
 .F.,(4,2,2,2,2,2,2,2,4),(0.,0.103960026210168,0.207920052420336,0.311871480400635,
0.415822908380934,0.519774336361233,0.623725764341531,0.727685790551699,
0.831645816761867),.UNSPECIFIED.);
#72=B_SPLINE_CURVE_WITH_KNOTS('',3,(#331,#332,#333,#334,#335,#336,#337,
#338,#339,#340,#341,#342,#343,#344,#345,#346,#347,#348),.UNSPECIFIED.,.F.,
 .F.,(4,2,2,2,2,2,2,2,4),(0.831645816761867,0.935605842972035,1.0395658691822,
1.1435172971625,1.2474687251428,1.3514201531231,1.4553715811034,1.55933160731357,
1.66329163352373),.UNSPECIFIED.);
#73=B_SPLINE_CURVE_WITH_KNOTS('',3,(#352,#353,#354,#355,#356,#357,#358,
#359,#360,#361,#362,#363,#364,#365,#366,#367,#368,#369),.UNSPECIFIED.,.F.,
 .F.,(4,2,2,2,2,2,2,2,4),(0.,0.103663401058332,0.207326802116664,0.310989850329907,
0.414652898543151,0.518315946756394,0.621978994969637,0.725642396027969,
0.829305797086301),.UNSPECIFIED.);
#74=B_SPLINE_CURVE_WITH_KNOTS('',3,(#370,#371,#372,#373,#374,#375,#376,
#377,#378,#379,#380,#381,#382,#383,#384,#385,#386,#387),.UNSPECIFIED.,.F.,
 .F.,(4,2,2,2,2,2,2,2,4),(0.829305797086301,0.932969198144633,1.03663259920297,
1.14029564741621,1.24395869562945,1.3476217438427,1.45128479205594,1.55494819311427,
1.6586115941726),.UNSPECIFIED.);
#75=VERTEX_POINT('',#233);
#76=VERTEX_POINT('',#234);
#77=VERTEX_POINT('',#271);
#78=VERTEX_POINT('',#273);
#79=VERTEX_POINT('',#311);
#80=VERTEX_POINT('',#312);
#81=VERTEX_POINT('',#349);
#82=VERTEX_POINT('',#351);
#83=VERTEX_POINT('',#389);
#84=VERTEX_POINT('',#390);
#85=VERTEX_POINT('',#392);
#86=VERTEX_POINT('',#394);
#87=VERTEX_POINT('',#398);
#88=VERTEX_POINT('',#400);
#89=VERTEX_POINT('',#404);
#90=VERTEX_POINT('',#406);
#91=EDGE_CURVE('',#75,#76,#67,.T.);
#92=EDGE_CURVE('',#76,#75,#68,.T.);
#93=EDGE_CURVE('',#76,#77,#47,.T.);
#94=EDGE_CURVE('',#78,#77,#69,.T.);
#95=EDGE_CURVE('',#77,#78,#70,.T.);
#96=EDGE_CURVE('',#79,#80,#71,.T.);
#97=EDGE_CURVE('',#80,#79,#72,.T.);
#98=EDGE_CURVE('',#80,#81,#48,.T.);
#99=EDGE_CURVE('',#82,#81,#73,.T.);
#100=EDGE_CURVE('',#81,#82,#74,.T.);
#101=EDGE_CURVE('',#83,#84,#23,.T.);
#102=EDGE_CURVE('',#83,#85,#49,.T.);
#103=EDGE_CURVE('',#86,#85,#24,.T.);
#104=EDGE_CURVE('',#84,#86,#50,.T.);
#105=EDGE_CURVE('',#84,#87,#51,.T.);
#106=EDGE_CURVE('',#88,#86,#52,.T.);
#107=EDGE_CURVE('',#87,#88,#53,.T.);
#108=EDGE_CURVE('',#87,#89,#25,.T.);
#109=EDGE_CURVE('',#90,#88,#26,.T.);
#110=EDGE_CURVE('',#89,#90,#54,.T.);
#111=EDGE_CURVE('',#83,#89,#55,.T.);
#112=EDGE_CURVE('',#85,#90,#56,.T.);
#113=ORIENTED_EDGE('',*,*,#91,.F.);
#114=ORIENTED_EDGE('',*,*,#92,.F.);
#115=ORIENTED_EDGE('',*,*,#93,.T.);
#116=ORIENTED_EDGE('',*,*,#94,.F.);
#117=ORIENTED_EDGE('',*,*,#95,.F.);
#118=ORIENTED_EDGE('',*,*,#93,.F.);
#119=ORIENTED_EDGE('',*,*,#96,.F.);
#120=ORIENTED_EDGE('',*,*,#97,.F.);
#121=ORIENTED_EDGE('',*,*,#98,.T.);
#122=ORIENTED_EDGE('',*,*,#99,.F.);
#123=ORIENTED_EDGE('',*,*,#100,.F.);
#124=ORIENTED_EDGE('',*,*,#98,.F.);
#125=ORIENTED_EDGE('',*,*,#101,.F.);
#126=ORIENTED_EDGE('',*,*,#102,.T.);
#127=ORIENTED_EDGE('',*,*,#103,.F.);
#128=ORIENTED_EDGE('',*,*,#104,.F.);
#129=ORIENTED_EDGE('',*,*,#94,.T.);
#130=ORIENTED_EDGE('',*,*,#95,.T.);
#131=ORIENTED_EDGE('',*,*,#99,.T.);
#132=ORIENTED_EDGE('',*,*,#100,.T.);
#133=ORIENTED_EDGE('',*,*,#105,.F.);
#134=ORIENTED_EDGE('',*,*,#104,.T.);
#135=ORIENTED_EDGE('',*,*,#106,.F.);
#136=ORIENTED_EDGE('',*,*,#107,.F.);
#137=ORIENTED_EDGE('',*,*,#108,.F.);
#138=ORIENTED_EDGE('',*,*,#107,.T.);
#139=ORIENTED_EDGE('',*,*,#109,.F.);
#140=ORIENTED_EDGE('',*,*,#110,.F.);
#141=ORIENTED_EDGE('',*,*,#91,.T.);
#142=ORIENTED_EDGE('',*,*,#92,.T.);
#143=ORIENTED_EDGE('',*,*,#96,.T.);
#144=ORIENTED_EDGE('',*,*,#97,.T.);
#145=ORIENTED_EDGE('',*,*,#111,.T.);
#146=ORIENTED_EDGE('',*,*,#110,.T.);
#147=ORIENTED_EDGE('',*,*,#112,.F.);
#148=ORIENTED_EDGE('',*,*,#102,.F.);
#149=ORIENTED_EDGE('',*,*,#112,.T.);
#150=ORIENTED_EDGE('',*,*,#109,.T.);
#151=ORIENTED_EDGE('',*,*,#106,.T.);
#152=ORIENTED_EDGE('',*,*,#103,.T.);
#153=ORIENTED_EDGE('',*,*,#111,.F.);
#154=ORIENTED_EDGE('',*,*,#101,.T.);
#155=ORIENTED_EDGE('',*,*,#105,.T.);
#156=ORIENTED_EDGE('',*,*,#108,.T.);
#157=CYLINDRICAL_SURFACE('',#183,2.75);
#158=CYLINDRICAL_SURFACE('',#184,2.75);
#159=CYLINDRICAL_SURFACE('',#185,27.5);
#160=CYLINDRICAL_SURFACE('',#189,12.5);
#161=ADVANCED_FACE('',(#27),#157,.F.);
#162=ADVANCED_FACE('',(#28),#158,.F.);
#163=ADVANCED_FACE('',(#29,#19,#20),#159,.F.);
#164=ADVANCED_FACE('',(#30),#15,.T.);
#165=ADVANCED_FACE('',(#31,#21,#22),#160,.F.);
#166=ADVANCED_FACE('',(#32),#16,.T.);
#167=ADVANCED_FACE('',(#33),#17,.T.);
#168=ADVANCED_FACE('',(#34),#18,.F.);
#169=CLOSED_SHELL('',(#161,#162,#163,#164,#165,#166,#167,#168));
#170=DERIVED_UNIT_ELEMENT(#172,1.);
#171=DERIVED_UNIT_ELEMENT(#419,-3.);
#172=(
MASS_UNIT()
NAMED_UNIT(*)
SI_UNIT(.KILO.,.GRAM.)
);
#173=DERIVED_UNIT((#170,#171));
#174=MEASURE_REPRESENTATION_ITEM('density measure',
POSITIVE_RATIO_MEASURE(7850.),#173);
#175=PROPERTY_DEFINITION_REPRESENTATION(#180,#177);
#176=PROPERTY_DEFINITION_REPRESENTATION(#181,#178);
#177=REPRESENTATION('material name',(#179),#416);
#178=REPRESENTATION('density',(#174),#416);
#179=DESCRIPTIVE_REPRESENTATION_ITEM('Acier','Acier');
#180=PROPERTY_DEFINITION('material property','material name',#426);
#181=PROPERTY_DEFINITION('material property','density of part',#426);
#182=AXIS2_PLACEMENT_3D('',#231,#195,#196);
#183=AXIS2_PLACEMENT_3D('',#232,#197,#198);
#184=AXIS2_PLACEMENT_3D('',#310,#200,#201);
#185=AXIS2_PLACEMENT_3D('',#388,#203,#204);
#186=AXIS2_PLACEMENT_3D('',#391,#205,#206);
#187=AXIS2_PLACEMENT_3D('',#395,#208,#209);
#188=AXIS2_PLACEMENT_3D('',#397,#211,#212);
#189=AXIS2_PLACEMENT_3D('',#403,#216,#217);
#190=AXIS2_PLACEMENT_3D('',#405,#218,#219);
#191=AXIS2_PLACEMENT_3D('',#407,#220,#221);
#192=AXIS2_PLACEMENT_3D('',#409,#223,#224);
#193=AXIS2_PLACEMENT_3D('',#412,#227,#228);
#194=AXIS2_PLACEMENT_3D('',#413,#229,#230);
#195=DIRECTION('axis',(0.,0.,1.));
#196=DIRECTION('refdir',(1.,0.,0.));
#197=DIRECTION('center_axis',(1.17427435296892E-16,1.,0.));
#198=DIRECTION('ref_axis',(-1.,1.17427435296892E-16,0.));
#199=DIRECTION('',(1.17427435296892E-16,1.,0.));
#200=DIRECTION('center_axis',(1.17427435296892E-16,1.,0.));
#201=DIRECTION('ref_axis',(-1.,1.17427435296892E-16,0.));
#202=DIRECTION('',(1.17427435296892E-16,1.,0.));
#203=DIRECTION('center_axis',(0.,0.,1.));
#204=DIRECTION('ref_axis',(1.,0.,0.));
#205=DIRECTION('center_axis',(0.,0.,1.));
#206=DIRECTION('ref_axis',(1.,0.,0.));
#207=DIRECTION('',(0.,0.,1.));
#208=DIRECTION('center_axis',(0.,0.,-1.));
#209=DIRECTION('ref_axis',(1.,0.,0.));
#210=DIRECTION('',(0.,0.,1.));
#211=DIRECTION('center_axis',(1.,0.,0.));
#212=DIRECTION('ref_axis',(0.,1.,0.));
#213=DIRECTION('',(0.,-1.,0.));
#214=DIRECTION('',(0.,1.,0.));
#215=DIRECTION('',(0.,0.,1.));
#216=DIRECTION('center_axis',(0.,0.,1.));
#217=DIRECTION('ref_axis',(1.,0.,0.));
#218=DIRECTION('center_axis',(0.,0.,1.));
#219=DIRECTION('ref_axis',(1.,0.,0.));
#220=DIRECTION('center_axis',(0.,0.,-1.));
#221=DIRECTION('ref_axis',(1.,0.,0.));
#222=DIRECTION('',(0.,0.,1.));
#223=DIRECTION('center_axis',(-1.,2.22587723579473E-16,0.));
#224=DIRECTION('ref_axis',(-2.22587723579473E-16,-1.,0.));
#225=DIRECTION('',(-2.22587723579473E-16,-1.,0.));
#226=DIRECTION('',(-2.22587723579473E-16,-1.,0.));
#227=DIRECTION('center_axis',(0.,0.,1.));
#228=DIRECTION('ref_axis',(1.,0.,0.));
#229=DIRECTION('center_axis',(0.,0.,1.));
#230=DIRECTION('ref_axis',(1.,0.,0.));
#231=CARTESIAN_POINT('',(0.,0.,0.));
#232=CARTESIAN_POINT('Origin',(-8.56640436003574E-15,-69.95,6.00000008940697));
#233=CARTESIAN_POINT('',(-2.75000000000001,-60.2562516017428,6.00000008940697));
#234=CARTESIAN_POINT('',(2.74999999999999,-60.2562516017428,6.00000008940697));
#235=CARTESIAN_POINT('Ctrl Pts',(-2.75000000000001,-60.2562516017428,6.00000008940697));
#236=CARTESIAN_POINT('Ctrl Pts',(-2.75000000000001,-60.2562516017428,6.34653351010753));
#237=CARTESIAN_POINT('Ctrl Pts',(-2.6805124242227,-60.2399450180096,6.71535884316743));
#238=CARTESIAN_POINT('Ctrl Pts',(-2.39952022744373,-60.181630435913,7.39254746685908));
#239=CARTESIAN_POINT('Ctrl Pts',(-2.18807453042367,-60.1405277135692,7.70101285550932));
#240=CARTESIAN_POINT('Ctrl Pts',(-1.70103290782972,-60.0638280685907,8.18805447810326));
#241=CARTESIAN_POINT('Ctrl Pts',(-1.39255902733826,-60.0231638586411,8.3995159269828));
#242=CARTESIAN_POINT('Ctrl Pts',(-0.715340667055502,-59.965859466841,8.68051957438301));
#243=CARTESIAN_POINT('Ctrl Pts',(-0.346504759934337,-59.95,8.75000008940697));
#244=CARTESIAN_POINT('Ctrl Pts',(0.346504759934322,-59.95,8.75000008940697));
#245=CARTESIAN_POINT('Ctrl Pts',(0.715340667055486,-59.965859466841,8.68051957438301));
#246=CARTESIAN_POINT('Ctrl Pts',(1.39255902733825,-60.0231638586411,8.39951592698281));
#247=CARTESIAN_POINT('Ctrl Pts',(1.70103290782971,-60.0638280685907,8.18805447810326));
#248=CARTESIAN_POINT('Ctrl Pts',(2.18807453042366,-60.1405277135692,7.70101285550932));
#249=CARTESIAN_POINT('Ctrl Pts',(2.39952022744372,-60.181630435913,7.39254746685908));
#250=CARTESIAN_POINT('Ctrl Pts',(2.68051242422268,-60.2399450180096,6.71535884316743));
#251=CARTESIAN_POINT('Ctrl Pts',(2.74999999999999,-60.2562516017428,6.34653351010753));
#252=CARTESIAN_POINT('Ctrl Pts',(2.74999999999999,-60.2562516017428,6.00000008940697));
#253=CARTESIAN_POINT('Ctrl Pts',(2.74999999999999,-60.2562516017428,6.00000008940697));
#254=CARTESIAN_POINT('Ctrl Pts',(2.74999999999999,-60.2562516017428,5.65346666870641));
#255=CARTESIAN_POINT('Ctrl Pts',(2.68051242422268,-60.2399450180096,5.28464133564651));
#256=CARTESIAN_POINT('Ctrl Pts',(2.39952022744372,-60.181630435913,4.60745271195485));
#257=CARTESIAN_POINT('Ctrl Pts',(2.18807453042366,-60.1405277135692,4.29898732330462));
#258=CARTESIAN_POINT('Ctrl Pts',(1.70103290782971,-60.0638280685907,3.81194570071067));
#259=CARTESIAN_POINT('Ctrl Pts',(1.39255902733825,-60.0231638586411,3.60048425183113));
#260=CARTESIAN_POINT('Ctrl Pts',(0.715340667055487,-59.965859466841,3.31948060443093));
#261=CARTESIAN_POINT('Ctrl Pts',(0.346504759934323,-59.95,3.25000008940697));
#262=CARTESIAN_POINT('Ctrl Pts',(-0.346504759934337,-59.95,3.25000008940697));
#263=CARTESIAN_POINT('Ctrl Pts',(-0.715340667055501,-59.965859466841,3.31948060443093));
#264=CARTESIAN_POINT('Ctrl Pts',(-1.39255902733826,-60.0231638586411,3.60048425183113));
#265=CARTESIAN_POINT('Ctrl Pts',(-1.70103290782972,-60.0638280685907,3.81194570071067));
#266=CARTESIAN_POINT('Ctrl Pts',(-2.18807453042367,-60.1405277135692,4.29898732330462));
#267=CARTESIAN_POINT('Ctrl Pts',(-2.39952022744373,-60.181630435913,4.60745271195485));
#268=CARTESIAN_POINT('Ctrl Pts',(-2.6805124242227,-60.2399450180096,5.28464133564651));
#269=CARTESIAN_POINT('Ctrl Pts',(-2.75000000000001,-60.2562516017428,5.65346666870641));
#270=CARTESIAN_POINT('Ctrl Pts',(-2.75000000000001,-60.2562516017428,6.00000008940697));
#271=CARTESIAN_POINT('',(2.75,-27.362154520432,6.00000008940697));
#272=CARTESIAN_POINT('',(2.74999999999999,-69.95,6.00000008940697));
#273=CARTESIAN_POINT('',(-2.75,-27.362154520432,6.00000008940697));
#274=CARTESIAN_POINT('Ctrl Pts',(-2.75,-27.362154520432,6.00000008940697));
#275=CARTESIAN_POINT('Ctrl Pts',(-2.75,-27.362154520432,5.65445541921253));
#276=CARTESIAN_POINT('Ctrl Pts',(-2.68089549522881,-27.3693746692904,5.28603722925184));
#277=CARTESIAN_POINT('Ctrl Pts',(-2.40017631486376,-27.3954197634534,4.60856292565148));
#278=CARTESIAN_POINT('Ctrl Pts',(-2.18857424898218,-27.4138649763528,4.29948704186313));
#279=CARTESIAN_POINT('Ctrl Pts',(-1.70051387816485,-27.448462658731,3.8114266710458));
#280=CARTESIAN_POINT('Ctrl Pts',(-1.39143763020196,-27.4668675494733,3.59982395703058));
#281=CARTESIAN_POINT('Ctrl Pts',(-0.713962106852208,-27.4928203312563,3.31910429282857));
#282=CARTESIAN_POINT('Ctrl Pts',(-0.345543494044148,-27.5,3.25000008940697));
#283=CARTESIAN_POINT('Ctrl Pts',(0.345543494044141,-27.5,3.25000008940697));
#284=CARTESIAN_POINT('Ctrl Pts',(0.7139621068522,-27.4928203312563,3.31910429282857));
#285=CARTESIAN_POINT('Ctrl Pts',(1.39143763020195,-27.4668675494733,3.59982395703058));
#286=CARTESIAN_POINT('Ctrl Pts',(1.70051387816484,-27.448462658731,3.8114266710458));
#287=CARTESIAN_POINT('Ctrl Pts',(2.18857424898218,-27.4138649763528,4.29948704186313));
#288=CARTESIAN_POINT('Ctrl Pts',(2.40017631486375,-27.3954197634534,4.60856292565148));
#289=CARTESIAN_POINT('Ctrl Pts',(2.6808954952288,-27.3693746692904,5.28603722925184));
#290=CARTESIAN_POINT('Ctrl Pts',(2.75,-27.362154520432,5.65445541921253));
#291=CARTESIAN_POINT('Ctrl Pts',(2.75,-27.362154520432,6.00000008940697));
#292=CARTESIAN_POINT('Ctrl Pts',(2.75,-27.362154520432,6.00000008940697));
#293=CARTESIAN_POINT('Ctrl Pts',(2.75,-27.362154520432,6.34554475960141));
#294=CARTESIAN_POINT('Ctrl Pts',(2.6808954952288,-27.3693746692904,6.7139629495621));
#295=CARTESIAN_POINT('Ctrl Pts',(2.40017631486375,-27.3954197634534,7.39143725316245));
#296=CARTESIAN_POINT('Ctrl Pts',(2.18857424898218,-27.4138649763528,7.7005131369508));
#297=CARTESIAN_POINT('Ctrl Pts',(1.70051387816484,-27.448462658731,8.18857350776814));
#298=CARTESIAN_POINT('Ctrl Pts',(1.39143763020195,-27.4668675494733,8.40017622178335));
#299=CARTESIAN_POINT('Ctrl Pts',(0.713962106852202,-27.4928203312563,8.68089588598536));
#300=CARTESIAN_POINT('Ctrl Pts',(0.345543494044142,-27.5,8.75000008940697));
#301=CARTESIAN_POINT('Ctrl Pts',(-0.345543494044148,-27.5,8.75000008940697));
#302=CARTESIAN_POINT('Ctrl Pts',(-0.713962106852208,-27.4928203312563,8.68089588598536));
#303=CARTESIAN_POINT('Ctrl Pts',(-1.39143763020196,-27.4668675494733,8.40017622178335));
#304=CARTESIAN_POINT('Ctrl Pts',(-1.70051387816485,-27.448462658731,8.18857350776814));
#305=CARTESIAN_POINT('Ctrl Pts',(-2.18857424898218,-27.4138649763528,7.7005131369508));
#306=CARTESIAN_POINT('Ctrl Pts',(-2.40017631486375,-27.3954197634534,7.39143725316245));
#307=CARTESIAN_POINT('Ctrl Pts',(-2.68089549522881,-27.3693746692904,6.71396294956209));
#308=CARTESIAN_POINT('Ctrl Pts',(-2.75,-27.362154520432,6.34554475960141));
#309=CARTESIAN_POINT('Ctrl Pts',(-2.75,-27.362154520432,6.00000008940697));
#310=CARTESIAN_POINT('Origin',(-8.56640436003574E-15,-69.95,19.0000002831221));
#311=CARTESIAN_POINT('',(-2.75000000000001,-60.2562516017428,19.0000002831221));
#312=CARTESIAN_POINT('',(2.74999999999999,-60.2562516017428,19.0000002831221));
#313=CARTESIAN_POINT('Ctrl Pts',(-2.75000000000001,-60.2562516017428,19.0000002831221));
#314=CARTESIAN_POINT('Ctrl Pts',(-2.75000000000001,-60.2562516017428,19.3465337038226));
#315=CARTESIAN_POINT('Ctrl Pts',(-2.6805124242227,-60.2399450180096,19.7153590368825));
#316=CARTESIAN_POINT('Ctrl Pts',(-2.39952022744373,-60.181630435913,20.3925476605742));
#317=CARTESIAN_POINT('Ctrl Pts',(-2.18807453042367,-60.1405277135692,20.7010130492244));
#318=CARTESIAN_POINT('Ctrl Pts',(-1.70103290782972,-60.0638280685907,21.1880546718184));
#319=CARTESIAN_POINT('Ctrl Pts',(-1.39255902733826,-60.0231638586411,21.3995161206979));
#320=CARTESIAN_POINT('Ctrl Pts',(-0.7153406670555,-59.965859466841,21.6805197680981));
#321=CARTESIAN_POINT('Ctrl Pts',(-0.346504759934337,-59.95,21.7500002831221));
#322=CARTESIAN_POINT('Ctrl Pts',(0.346504759934322,-59.95,21.7500002831221));
#323=CARTESIAN_POINT('Ctrl Pts',(0.715340667055485,-59.965859466841,21.6805197680981));
#324=CARTESIAN_POINT('Ctrl Pts',(1.39255902733825,-60.0231638586411,21.3995161206979));
#325=CARTESIAN_POINT('Ctrl Pts',(1.70103290782971,-60.0638280685907,21.1880546718184));
#326=CARTESIAN_POINT('Ctrl Pts',(2.18807453042366,-60.1405277135692,20.7010130492244));
#327=CARTESIAN_POINT('Ctrl Pts',(2.39952022744372,-60.181630435913,20.3925476605742));
#328=CARTESIAN_POINT('Ctrl Pts',(2.68051242422268,-60.2399450180096,19.7153590368825));
#329=CARTESIAN_POINT('Ctrl Pts',(2.74999999999999,-60.2562516017428,19.3465337038226));
#330=CARTESIAN_POINT('Ctrl Pts',(2.74999999999999,-60.2562516017428,19.0000002831221));
#331=CARTESIAN_POINT('Ctrl Pts',(2.74999999999999,-60.2562516017428,19.0000002831221));
#332=CARTESIAN_POINT('Ctrl Pts',(2.74999999999999,-60.2562516017428,18.6534668624215));
#333=CARTESIAN_POINT('Ctrl Pts',(2.68051242422268,-60.2399450180096,18.2846415293616));
#334=CARTESIAN_POINT('Ctrl Pts',(2.39952022744371,-60.181630435913,17.6074529056699));
#335=CARTESIAN_POINT('Ctrl Pts',(2.18807453042366,-60.1405277135692,17.2989875170197));
#336=CARTESIAN_POINT('Ctrl Pts',(1.70103290782971,-60.0638280685907,16.8119458944258));
#337=CARTESIAN_POINT('Ctrl Pts',(1.39255902733825,-60.0231638586411,16.6004844455462));
#338=CARTESIAN_POINT('Ctrl Pts',(0.715340667055487,-59.965859466841,16.319480798146));
#339=CARTESIAN_POINT('Ctrl Pts',(0.346504759934323,-59.95,16.2500002831221));
#340=CARTESIAN_POINT('Ctrl Pts',(-0.346504759934337,-59.95,16.2500002831221));
#341=CARTESIAN_POINT('Ctrl Pts',(-0.715340667055501,-59.965859466841,16.319480798146));
#342=CARTESIAN_POINT('Ctrl Pts',(-1.39255902733826,-60.0231638586411,16.6004844455462));
#343=CARTESIAN_POINT('Ctrl Pts',(-1.70103290782972,-60.0638280685907,16.8119458944258));
#344=CARTESIAN_POINT('Ctrl Pts',(-2.18807453042367,-60.1405277135692,17.2989875170197));
#345=CARTESIAN_POINT('Ctrl Pts',(-2.39952022744373,-60.181630435913,17.6074529056699));
#346=CARTESIAN_POINT('Ctrl Pts',(-2.6805124242227,-60.2399450180096,18.2846415293616));
#347=CARTESIAN_POINT('Ctrl Pts',(-2.75000000000001,-60.2562516017428,18.6534668624215));
#348=CARTESIAN_POINT('Ctrl Pts',(-2.75000000000001,-60.2562516017428,19.0000002831221));
#349=CARTESIAN_POINT('',(2.75,-27.362154520432,19.0000002831221));
#350=CARTESIAN_POINT('',(2.74999999999999,-69.95,19.0000002831221));
#351=CARTESIAN_POINT('',(-2.75,-27.362154520432,19.0000002831221));
#352=CARTESIAN_POINT('Ctrl Pts',(-2.75,-27.362154520432,19.0000002831221));
#353=CARTESIAN_POINT('Ctrl Pts',(-2.75,-27.362154520432,18.6544556129276));
#354=CARTESIAN_POINT('Ctrl Pts',(-2.68089549522881,-27.3693746692904,18.2860374229669));
#355=CARTESIAN_POINT('Ctrl Pts',(-2.40017631486375,-27.3954197634534,17.6085631193666));
#356=CARTESIAN_POINT('Ctrl Pts',(-2.18857424898218,-27.4138649763528,17.2994872355782));
#357=CARTESIAN_POINT('Ctrl Pts',(-1.70051387816485,-27.448462658731,16.8114268647609));
#358=CARTESIAN_POINT('Ctrl Pts',(-1.39143763020196,-27.4668675494733,16.5998241507457));
#359=CARTESIAN_POINT('Ctrl Pts',(-0.713962106852208,-27.4928203312563,16.3191044865437));
#360=CARTESIAN_POINT('Ctrl Pts',(-0.345543494044148,-27.5,16.2500002831221));
#361=CARTESIAN_POINT('Ctrl Pts',(0.345543494044141,-27.5,16.2500002831221));
#362=CARTESIAN_POINT('Ctrl Pts',(0.713962106852199,-27.4928203312563,16.3191044865437));
#363=CARTESIAN_POINT('Ctrl Pts',(1.39143763020195,-27.4668675494733,16.5998241507457));
#364=CARTESIAN_POINT('Ctrl Pts',(1.70051387816484,-27.448462658731,16.8114268647609));
#365=CARTESIAN_POINT('Ctrl Pts',(2.18857424898218,-27.4138649763528,17.2994872355782));
#366=CARTESIAN_POINT('Ctrl Pts',(2.40017631486375,-27.3954197634534,17.6085631193666));
#367=CARTESIAN_POINT('Ctrl Pts',(2.6808954952288,-27.3693746692904,18.2860374229669));
#368=CARTESIAN_POINT('Ctrl Pts',(2.75,-27.362154520432,18.6544556129276));
#369=CARTESIAN_POINT('Ctrl Pts',(2.75,-27.362154520432,19.0000002831221));
#370=CARTESIAN_POINT('Ctrl Pts',(2.75,-27.362154520432,19.0000002831221));
#371=CARTESIAN_POINT('Ctrl Pts',(2.75,-27.362154520432,19.3455449533165));
#372=CARTESIAN_POINT('Ctrl Pts',(2.6808954952288,-27.3693746692904,19.7139631432772));
#373=CARTESIAN_POINT('Ctrl Pts',(2.40017631486375,-27.3954197634534,20.3914374468775));
#374=CARTESIAN_POINT('Ctrl Pts',(2.18857424898218,-27.4138649763528,20.7005133306659));
#375=CARTESIAN_POINT('Ctrl Pts',(1.70051387816484,-27.448462658731,21.1885737014832));
#376=CARTESIAN_POINT('Ctrl Pts',(1.39143763020195,-27.4668675494733,21.4001764154984));
#377=CARTESIAN_POINT('Ctrl Pts',(0.713962106852202,-27.4928203312563,21.6808960797005));
#378=CARTESIAN_POINT('Ctrl Pts',(0.345543494044141,-27.5,21.7500002831221));
#379=CARTESIAN_POINT('Ctrl Pts',(-0.345543494044148,-27.5,21.7500002831221));
#380=CARTESIAN_POINT('Ctrl Pts',(-0.713962106852209,-27.4928203312563,21.6808960797005));
#381=CARTESIAN_POINT('Ctrl Pts',(-1.39143763020196,-27.4668675494733,21.4001764154984));
#382=CARTESIAN_POINT('Ctrl Pts',(-1.70051387816485,-27.448462658731,21.1885737014832));
#383=CARTESIAN_POINT('Ctrl Pts',(-2.18857424898219,-27.4138649763528,20.7005133306659));
#384=CARTESIAN_POINT('Ctrl Pts',(-2.40017631486375,-27.3954197634534,20.3914374468775));
#385=CARTESIAN_POINT('Ctrl Pts',(-2.68089549522881,-27.3693746692904,19.7139631432772));
#386=CARTESIAN_POINT('Ctrl Pts',(-2.75,-27.362154520432,19.3455449533165));
#387=CARTESIAN_POINT('Ctrl Pts',(-2.75,-27.362154520432,19.0000002831221));
#388=CARTESIAN_POINT('Origin',(0.,0.,0.));
#389=CARTESIAN_POINT('',(-10.0000001490116,-25.6173768567308,0.));
#390=CARTESIAN_POINT('',(10.0000001490116,-25.6173768567308,0.));
#391=CARTESIAN_POINT('Origin',(0.,0.,0.));
#392=CARTESIAN_POINT('',(-10.0000001490116,-25.6173768567308,25.));
#393=CARTESIAN_POINT('',(-10.0000001490116,-25.6173768567308,0.));
#394=CARTESIAN_POINT('',(10.0000001490116,-25.6173768567308,25.));
#395=CARTESIAN_POINT('Origin',(0.,0.,25.));
#396=CARTESIAN_POINT('',(10.0000001490116,-25.6173768567308,0.));
#397=CARTESIAN_POINT('Origin',(10.000000149011,-64.9500001986814,0.));
#398=CARTESIAN_POINT('',(10.000000149011,-64.9500001986814,0.));
#399=CARTESIAN_POINT('',(10.000000149011,-54.9744004057416,0.));
#400=CARTESIAN_POINT('',(10.000000149011,-64.9500001986814,25.));
#401=CARTESIAN_POINT('',(10.000000149011,-54.9744004057416,25.));
#402=CARTESIAN_POINT('',(10.000000149011,-64.9500001986814,0.));
#403=CARTESIAN_POINT('Origin',(0.,-72.45,0.));
#404=CARTESIAN_POINT('',(-10.000000149011,-64.9500001986814,0.));
#405=CARTESIAN_POINT('Origin',(0.,-72.45,0.));
#406=CARTESIAN_POINT('',(-10.000000149011,-64.9500001986814,25.));
#407=CARTESIAN_POINT('Origin',(0.,-72.45,25.));
#408=CARTESIAN_POINT('',(-10.000000149011,-64.9500001986814,0.));
#409=CARTESIAN_POINT('Origin',(-10.000000149011,-25.6173768567308,0.));
#410=CARTESIAN_POINT('',(-10.000000149011,-54.9744004057416,0.));
#411=CARTESIAN_POINT('',(-10.000000149011,-54.9744004057416,25.));
#412=CARTESIAN_POINT('Origin',(0.,-45.2836885277061,25.));
#413=CARTESIAN_POINT('Origin',(0.,-45.2836885277061,0.));
#414=UNCERTAINTY_MEASURE_WITH_UNIT(LENGTH_MEASURE(0.01),#418,
'DISTANCE_ACCURACY_VALUE',
'Maximum model space distance between geometric entities at asserted c
onnectivities');
#415=UNCERTAINTY_MEASURE_WITH_UNIT(LENGTH_MEASURE(0.01),#418,
'DISTANCE_ACCURACY_VALUE',
'Maximum model space distance between geometric entities at asserted c
onnectivities');
#416=(
GEOMETRIC_REPRESENTATION_CONTEXT(3)
GLOBAL_UNCERTAINTY_ASSIGNED_CONTEXT((#414))
GLOBAL_UNIT_ASSIGNED_CONTEXT((#418,#420,#421))
REPRESENTATION_CONTEXT('','3D')
);
#417=(
GEOMETRIC_REPRESENTATION_CONTEXT(3)
GLOBAL_UNCERTAINTY_ASSIGNED_CONTEXT((#415))
GLOBAL_UNIT_ASSIGNED_CONTEXT((#418,#420,#421))
REPRESENTATION_CONTEXT('','3D')
);
#418=(
LENGTH_UNIT()
NAMED_UNIT(*)
SI_UNIT(.MILLI.,.METRE.)
);
#419=(
LENGTH_UNIT()
NAMED_UNIT(*)
SI_UNIT($,.METRE.)
);
#420=(
NAMED_UNIT(*)
PLANE_ANGLE_UNIT()
SI_UNIT($,.RADIAN.)
);
#421=(
NAMED_UNIT(*)
SI_UNIT($,.STERADIAN.)
SOLID_ANGLE_UNIT()
);
#422=SHAPE_DEFINITION_REPRESENTATION(#423,#424);
#423=PRODUCT_DEFINITION_SHAPE('',$,#426);
#424=SHAPE_REPRESENTATION('',(#182),#416);
#425=PRODUCT_DEFINITION_CONTEXT('part definition',#430,'design');
#426=PRODUCT_DEFINITION('Cale entretubes','Cale entretubes v1',#427,#425);
#427=PRODUCT_DEFINITION_FORMATION('',$,#432);
#428=PRODUCT_RELATED_PRODUCT_CATEGORY('Cale entretubes v1',
'Cale entretubes v1',(#432));
#429=APPLICATION_PROTOCOL_DEFINITION('international standard',
'automotive_design',2009,#430);
#430=APPLICATION_CONTEXT(
'Core Data for Automotive Mechanical Design Process');
#431=PRODUCT_CONTEXT('part definition',#430,'mechanical');
#432=PRODUCT('Cale entretubes','Cale entretubes v1',$,(#431));
#433=PRESENTATION_STYLE_ASSIGNMENT((#434));
#434=SURFACE_STYLE_USAGE(.BOTH.,#435);
#435=SURFACE_SIDE_STYLE('',(#436));
#436=SURFACE_STYLE_FILL_AREA(#437);
#437=FILL_AREA_STYLE('Acier - Satin\X\E9',(#438));
#438=FILL_AREA_STYLE_COLOUR('Acier - Satin\X\E9',#439);
#439=COLOUR_RGB('Acier - Satin\X\E9',0.627450980392157,0.627450980392157,
0.627450980392157);
ENDSEC;
END-ISO-10303-21;
