ISO-10303-21;
HEADER;
/* Generated by software containing ST-Developer
 * from STEP Tools, Inc. (www.steptools.com) 
 */

FILE_DESCRIPTION(
/* description */ (''),
/* implementation_level */ '2;1');

FILE_NAME(
/* name */ 'fixation rondelle.step',
/* time_stamp */ '2024-03-05T21:42:45+01:00',
/* author */ (''),
/* organization */ (''),
/* preprocessor_version */ 'ST-DEVELOPER v20',
/* originating_system */ 'Autodesk Translation Framework v12.20.1.177',

/* authorisation */ '');

FILE_SCHEMA (('AUTOMOTIVE_DESIGN { 1 0 10303 214 3 1 1 }'));
ENDSEC;

DATA;
#10=MECHANICAL_DESIGN_GEOMETRIC_PRESENTATION_REPRESENTATION('',(#17),#139);
#11=ITEM_DEFINED_TRANSFORMATION($,$,#83,#92);
#12=(
REPRESENTATION_RELATIONSHIP($,$,#150,#149)
REPRESENTATION_RELATIONSHIP_WITH_TRANSFORMATION(#11)
SHAPE_REPRESENTATION_RELATIONSHIP()
);
#13=CONTEXT_DEPENDENT_SHAPE_REPRESENTATION(#12,#148);
#14=NEXT_ASSEMBLY_USAGE_OCCURRENCE('ROTULE DOUBLE:1','ROTULE DOUBLE:1',
'ROTULE DOUBLE:1',#152,#153,'ROTULE DOUBLE:1');
#15=SHAPE_REPRESENTATION_RELATIONSHIP('SRR','None',#150,#16);
#16=ADVANCED_BREP_SHAPE_REPRESENTATION('',(#18),#138);
#17=STYLED_ITEM('',(#165),#18);
#18=MANIFOLD_SOLID_BREP('Corps2',#69);
#19=CYLINDRICAL_SURFACE('',#89,17.5);
#20=FACE_BOUND('',#30,.T.);
#21=FACE_BOUND('',#33,.T.);
#22=PLANE('',#87);
#23=PLANE('',#91);
#24=FACE_OUTER_BOUND('',#28,.T.);
#25=FACE_OUTER_BOUND('',#29,.T.);
#26=FACE_OUTER_BOUND('',#31,.T.);
#27=FACE_OUTER_BOUND('',#32,.T.);
#28=EDGE_LOOP('',(#52,#53,#54,#55));
#29=EDGE_LOOP('',(#56));
#30=EDGE_LOOP('',(#57));
#31=EDGE_LOOP('',(#58,#59,#60,#61));
#32=EDGE_LOOP('',(#62));
#33=EDGE_LOOP('',(#63));
#34=LINE('',#123,#36);
#35=LINE('',#130,#37);
#36=VECTOR('',#101,4.);
#37=VECTOR('',#110,17.5);
#38=CIRCLE('',#85,5.5);
#39=CIRCLE('',#86,2.5);
#40=CIRCLE('',#88,17.5);
#41=CIRCLE('',#90,17.5);
#42=VERTEX_POINT('',#120);
#43=VERTEX_POINT('',#122);
#44=VERTEX_POINT('',#126);
#45=VERTEX_POINT('',#129);
#46=EDGE_CURVE('',#42,#42,#38,.T.);
#47=EDGE_CURVE('',#42,#43,#34,.T.);
#48=EDGE_CURVE('',#43,#43,#39,.T.);
#49=EDGE_CURVE('',#44,#44,#40,.T.);
#50=EDGE_CURVE('',#44,#45,#35,.T.);
#51=EDGE_CURVE('',#45,#45,#41,.T.);
#52=ORIENTED_EDGE('',*,*,#46,.T.);
#53=ORIENTED_EDGE('',*,*,#47,.T.);
#54=ORIENTED_EDGE('',*,*,#48,.T.);
#55=ORIENTED_EDGE('',*,*,#47,.F.);
#56=ORIENTED_EDGE('',*,*,#49,.T.);
#57=ORIENTED_EDGE('',*,*,#46,.F.);
#58=ORIENTED_EDGE('',*,*,#49,.F.);
#59=ORIENTED_EDGE('',*,*,#50,.T.);
#60=ORIENTED_EDGE('',*,*,#51,.T.);
#61=ORIENTED_EDGE('',*,*,#50,.F.);
#62=ORIENTED_EDGE('',*,*,#51,.F.);
#63=ORIENTED_EDGE('',*,*,#48,.F.);
#64=CONICAL_SURFACE('',#84,4.,0.785398163397448);
#65=ADVANCED_FACE('',(#24),#64,.F.);
#66=ADVANCED_FACE('',(#25,#20),#22,.T.);
#67=ADVANCED_FACE('',(#26),#19,.T.);
#68=ADVANCED_FACE('',(#27,#21),#23,.F.);
#69=CLOSED_SHELL('',(#65,#66,#67,#68));
#70=DERIVED_UNIT_ELEMENT(#72,1.);
#71=DERIVED_UNIT_ELEMENT(#141,-3.);
#72=(
MASS_UNIT()
NAMED_UNIT(*)
SI_UNIT(.KILO.,.GRAM.)
);
#73=DERIVED_UNIT((#70,#71));
#74=MEASURE_REPRESENTATION_ITEM('density measure',
POSITIVE_RATIO_MEASURE(7850.),#73);
#75=PROPERTY_DEFINITION_REPRESENTATION(#80,#77);
#76=PROPERTY_DEFINITION_REPRESENTATION(#81,#78);
#77=REPRESENTATION('material name',(#79),#138);
#78=REPRESENTATION('density',(#74),#138);
#79=DESCRIPTIVE_REPRESENTATION_ITEM('Acier','Acier');
#80=PROPERTY_DEFINITION('material property','material name',#153);
#81=PROPERTY_DEFINITION('material property','density of part',#153);
#82=AXIS2_PLACEMENT_3D('',#117,#93,#94);
#83=AXIS2_PLACEMENT_3D('',#118,#95,#96);
#84=AXIS2_PLACEMENT_3D('',#119,#97,#98);
#85=AXIS2_PLACEMENT_3D('',#121,#99,#100);
#86=AXIS2_PLACEMENT_3D('',#124,#102,#103);
#87=AXIS2_PLACEMENT_3D('',#125,#104,#105);
#88=AXIS2_PLACEMENT_3D('',#127,#106,#107);
#89=AXIS2_PLACEMENT_3D('',#128,#108,#109);
#90=AXIS2_PLACEMENT_3D('',#131,#111,#112);
#91=AXIS2_PLACEMENT_3D('',#132,#113,#114);
#92=AXIS2_PLACEMENT_3D('',#133,#115,#116);
#93=DIRECTION('axis',(0.,0.,1.));
#94=DIRECTION('refdir',(1.,0.,0.));
#95=DIRECTION('axis',(0.,0.,1.));
#96=DIRECTION('refdir',(1.,0.,0.));
#97=DIRECTION('center_axis',(1.2335811384724E-16,1.,0.));
#98=DIRECTION('ref_axis',(-1.,1.42632819135871E-16,0.));
#99=DIRECTION('center_axis',(1.2335811384724E-16,1.,0.));
#100=DIRECTION('ref_axis',(-1.,1.2335811384724E-16,0.));
#101=DIRECTION('',(-0.707106781186548,-0.707106781186547,8.65956056235493E-17));
#102=DIRECTION('center_axis',(-1.2335811384724E-16,-1.,0.));
#103=DIRECTION('ref_axis',(-1.,1.2335811384724E-16,0.));
#104=DIRECTION('center_axis',(1.2335811384724E-16,1.,0.));
#105=DIRECTION('ref_axis',(-1.,1.2335811384724E-16,0.));
#106=DIRECTION('center_axis',(1.2335811384724E-16,1.,0.));
#107=DIRECTION('ref_axis',(-1.,1.2335811384724E-16,0.));
#108=DIRECTION('center_axis',(1.85037170770859E-16,1.,0.));
#109=DIRECTION('ref_axis',(-1.,1.85037170770859E-16,0.));
#110=DIRECTION('',(-1.85037170770859E-16,-1.,0.));
#111=DIRECTION('center_axis',(1.2335811384724E-16,1.,0.));
#112=DIRECTION('ref_axis',(-1.,1.2335811384724E-16,0.));
#113=DIRECTION('center_axis',(1.2335811384724E-16,1.,0.));
#114=DIRECTION('ref_axis',(-1.,1.2335811384724E-16,0.));
#115=DIRECTION('',(0.,0.,1.));
#116=DIRECTION('',(1.,0.,0.));
#117=CARTESIAN_POINT('',(0.,0.,0.));
#118=CARTESIAN_POINT('',(0.,0.,0.));
#119=CARTESIAN_POINT('Origin',(2.33473371354996E-15,-20.,-36.5));
#120=CARTESIAN_POINT('',(5.5,-18.5,-36.5));
#121=CARTESIAN_POINT('Origin',(2.51977088432082E-15,-18.5,-36.5));
#122=CARTESIAN_POINT('',(2.5,-21.5,-36.5));
#123=CARTESIAN_POINT('',(4.,-20.,-36.5));
#124=CARTESIAN_POINT('Origin',(2.1496965427791E-15,-21.5,-36.5));
#125=CARTESIAN_POINT('Origin',(2.34380416309755E-15,-18.5,-36.5));
#126=CARTESIAN_POINT('',(17.5,-18.5,-36.5));
#127=CARTESIAN_POINT('Origin',(2.70480805509168E-15,-18.5,-36.5));
#128=CARTESIAN_POINT('Origin',(2.1496965427791E-15,-21.5,-36.5));
#129=CARTESIAN_POINT('',(17.5,-21.5,-36.5));
#130=CARTESIAN_POINT('',(17.5,-21.5,-36.5));
#131=CARTESIAN_POINT('Origin',(2.1496965427791E-15,-21.5,-36.5));
#132=CARTESIAN_POINT('Origin',(1.78869265078497E-15,-21.5,-36.5));
#133=CARTESIAN_POINT('',(0.,0.,0.));
#134=UNCERTAINTY_MEASURE_WITH_UNIT(LENGTH_MEASURE(0.01),#140,
'DISTANCE_ACCURACY_VALUE',
'Maximum model space distance between geometric entities at asserted c
onnectivities');
#135=UNCERTAINTY_MEASURE_WITH_UNIT(LENGTH_MEASURE(0.01),#140,
'DISTANCE_ACCURACY_VALUE',
'Maximum model space distance between geometric entities at asserted c
onnectivities');
#136=UNCERTAINTY_MEASURE_WITH_UNIT(LENGTH_MEASURE(0.01),#140,
'DISTANCE_ACCURACY_VALUE',
'Maximum model space distance between geometric entities at asserted c
onnectivities');
#137=(
GEOMETRIC_REPRESENTATION_CONTEXT(3)
GLOBAL_UNCERTAINTY_ASSIGNED_CONTEXT((#134))
GLOBAL_UNIT_ASSIGNED_CONTEXT((#140,#142,#143))
REPRESENTATION_CONTEXT('','3D')
);
#138=(
GEOMETRIC_REPRESENTATION_CONTEXT(3)
GLOBAL_UNCERTAINTY_ASSIGNED_CONTEXT((#135))
GLOBAL_UNIT_ASSIGNED_CONTEXT((#140,#142,#143))
REPRESENTATION_CONTEXT('','3D')
);
#139=(
GEOMETRIC_REPRESENTATION_CONTEXT(3)
GLOBAL_UNCERTAINTY_ASSIGNED_CONTEXT((#136))
GLOBAL_UNIT_ASSIGNED_CONTEXT((#140,#142,#143))
REPRESENTATION_CONTEXT('','3D')
);
#140=(
LENGTH_UNIT()
NAMED_UNIT(*)
SI_UNIT(.MILLI.,.METRE.)
);
#141=(
LENGTH_UNIT()
NAMED_UNIT(*)
SI_UNIT($,.METRE.)
);
#142=(
NAMED_UNIT(*)
PLANE_ANGLE_UNIT()
SI_UNIT($,.RADIAN.)
);
#143=(
NAMED_UNIT(*)
SI_UNIT($,.STERADIAN.)
SOLID_ANGLE_UNIT()
);
#144=SHAPE_DEFINITION_REPRESENTATION(#146,#149);
#145=SHAPE_DEFINITION_REPRESENTATION(#147,#150);
#146=PRODUCT_DEFINITION_SHAPE('',$,#152);
#147=PRODUCT_DEFINITION_SHAPE('',$,#153);
#148=PRODUCT_DEFINITION_SHAPE($,$,#14);
#149=SHAPE_REPRESENTATION('',(#82,#92),#137);
#150=SHAPE_REPRESENTATION('',(#83),#138);
#151=PRODUCT_DEFINITION_CONTEXT('part definition',#159,'design');
#152=PRODUCT_DEFINITION('fixation simplifiee','fixation simplifiee v3',
#154,#151);
#153=PRODUCT_DEFINITION('ROTULE DOUBLE','ROTULE DOUBLE',#155,#151);
#154=PRODUCT_DEFINITION_FORMATION('',$,#161);
#155=PRODUCT_DEFINITION_FORMATION('',$,#162);
#156=PRODUCT_RELATED_PRODUCT_CATEGORY('fixation simplifiee v3',
'fixation simplifiee v3',(#161));
#157=PRODUCT_RELATED_PRODUCT_CATEGORY('ROTULE DOUBLE','ROTULE DOUBLE',(#162));
#158=APPLICATION_PROTOCOL_DEFINITION('international standard',
'automotive_design',2009,#159);
#159=APPLICATION_CONTEXT(
'Core Data for Automotive Mechanical Design Process');
#160=PRODUCT_CONTEXT('part definition',#159,'mechanical');
#161=PRODUCT('fixation simplifiee','fixation simplifiee v3',$,(#160));
#162=PRODUCT('ROTULE DOUBLE','ROTULE DOUBLE',$,(#160));
#163=PRESENTATION_STYLE_ASSIGNMENT((#166));
#164=PRESENTATION_STYLE_ASSIGNMENT((#167));
#165=PRESENTATION_STYLE_ASSIGNMENT((#168));
#166=SURFACE_STYLE_USAGE(.BOTH.,#169);
#167=SURFACE_STYLE_USAGE(.BOTH.,#170);
#168=SURFACE_STYLE_USAGE(.BOTH.,#171);
#169=SURFACE_SIDE_STYLE('',(#172));
#170=SURFACE_SIDE_STYLE('',(#173));
#171=SURFACE_SIDE_STYLE('',(#174));
#172=SURFACE_STYLE_FILL_AREA(#175);
#173=SURFACE_STYLE_FILL_AREA(#176);
#174=SURFACE_STYLE_FILL_AREA(#177);
#175=FILL_AREA_STYLE('Acier - Satin\X\E9',(#178));
#176=FILL_AREA_STYLE(
'PA 11 - Nylon - HP 11-30 (avec imprimante 3D EOS P 396)',(#179));
#177=FILL_AREA_STYLE('Aluminium - Microbill\X\E9',(#180));
#178=FILL_AREA_STYLE_COLOUR('Acier - Satin\X\E9',#181);
#179=FILL_AREA_STYLE_COLOUR(
'PA 11 - Nylon - HP 11-30 (avec imprimante 3D EOS P 396)',#182);
#180=FILL_AREA_STYLE_COLOUR('Aluminium - Microbill\X\E9',#183);
#181=COLOUR_RGB('Acier - Satin\X\E9',0.627450980392157,0.627450980392157,
0.627450980392157);
#182=COLOUR_RGB(
'PA 11 - Nylon - HP 11-30 (avec imprimante 3D EOS P 396)',0.247058823529412,
0.247058823529412,0.247058823529412);
#183=COLOUR_RGB('Aluminium - Microbill\X\E9',0.96078431372549,0.96078431372549,
0.964705882352941);
ENDSEC;
END-ISO-10303-21;
