ISO-10303-21;
HEADER;
/* Generated by software containing ST-Developer
 * from STEP Tools, Inc. (www.steptools.com) 
 */

FILE_DESCRIPTION(
/* description */ (''),
/* implementation_level */ '2;1');

FILE_NAME(
/* name */ 'Petite pice v5.step',
/* time_stamp */ '2024-03-03T15:48:58+01:00',
/* author */ (''),
/* organization */ (''),
/* preprocessor_version */ 'ST-DEVELOPER v20',
/* originating_system */ 'Autodesk Translation Framework v12.20.1.177',

/* authorisation */ '');

FILE_SCHEMA (('AUTOMOTIVE_DESIGN { 1 0 10303 214 3 1 1 }'));
ENDSEC;

DATA;
#10=MECHANICAL_DESIGN_GEOMETRIC_PRESENTATION_REPRESENTATION('',(#13),#247);
#11=SHAPE_REPRESENTATION_RELATIONSHIP('SRR','None',#254,#12);
#12=ADVANCED_BREP_SHAPE_REPRESENTATION('',(#14),#246);
#13=STYLED_ITEM('',(#263),#14);
#14=MANIFOLD_SOLID_BREP('Corps1',#144);
#15=FACE_BOUND('',#35,.T.);
#16=FACE_BOUND('',#41,.T.);
#17=PLANE('',#163);
#18=PLANE('',#164);
#19=PLANE('',#165);
#20=PLANE('',#166);
#21=PLANE('',#167);
#22=PLANE('',#168);
#23=CYLINDRICAL_SURFACE('',#161,0.8);
#24=FACE_OUTER_BOUND('',#32,.T.);
#25=FACE_OUTER_BOUND('',#33,.T.);
#26=FACE_OUTER_BOUND('',#34,.T.);
#27=FACE_OUTER_BOUND('',#36,.T.);
#28=FACE_OUTER_BOUND('',#37,.T.);
#29=FACE_OUTER_BOUND('',#38,.T.);
#30=FACE_OUTER_BOUND('',#39,.T.);
#31=FACE_OUTER_BOUND('',#40,.T.);
#32=EDGE_LOOP('',(#101,#102,#103,#104));
#33=EDGE_LOOP('',(#105,#106,#107,#108));
#34=EDGE_LOOP('',(#109,#110,#111,#112));
#35=EDGE_LOOP('',(#113));
#36=EDGE_LOOP('',(#114,#115,#116,#117));
#37=EDGE_LOOP('',(#118,#119,#120,#121));
#38=EDGE_LOOP('',(#122,#123,#124,#125));
#39=EDGE_LOOP('',(#126,#127,#128,#129));
#40=EDGE_LOOP('',(#130,#131,#132,#133));
#41=EDGE_LOOP('',(#134));
#42=LINE('',#212,#56);
#43=LINE('',#216,#57);
#44=LINE('',#221,#58);
#45=LINE('',#223,#59);
#46=LINE('',#225,#60);
#47=LINE('',#226,#61);
#48=LINE('',#229,#62);
#49=LINE('',#231,#63);
#50=LINE('',#232,#64);
#51=LINE('',#235,#65);
#52=LINE('',#236,#66);
#53=LINE('',#239,#67);
#54=LINE('',#240,#68);
#55=LINE('',#242,#69);
#56=VECTOR('',#175,1.15);
#57=VECTOR('',#180,0.8);
#58=VECTOR('',#185,10.);
#59=VECTOR('',#186,10.);
#60=VECTOR('',#187,10.);
#61=VECTOR('',#188,10.);
#62=VECTOR('',#191,10.);
#63=VECTOR('',#192,10.);
#64=VECTOR('',#193,10.);
#65=VECTOR('',#196,10.);
#66=VECTOR('',#197,10.);
#67=VECTOR('',#200,10.);
#68=VECTOR('',#201,10.);
#69=VECTOR('',#204,10.);
#70=CIRCLE('',#159,1.5);
#71=CIRCLE('',#160,0.8);
#72=CIRCLE('',#162,0.8);
#73=VERTEX_POINT('',#209);
#74=VERTEX_POINT('',#211);
#75=VERTEX_POINT('',#215);
#76=VERTEX_POINT('',#219);
#77=VERTEX_POINT('',#220);
#78=VERTEX_POINT('',#222);
#79=VERTEX_POINT('',#224);
#80=VERTEX_POINT('',#228);
#81=VERTEX_POINT('',#230);
#82=VERTEX_POINT('',#234);
#83=VERTEX_POINT('',#238);
#84=EDGE_CURVE('',#73,#73,#70,.T.);
#85=EDGE_CURVE('',#73,#74,#42,.T.);
#86=EDGE_CURVE('',#74,#74,#71,.T.);
#87=EDGE_CURVE('',#74,#75,#43,.T.);
#88=EDGE_CURVE('',#75,#75,#72,.T.);
#89=EDGE_CURVE('',#76,#77,#44,.T.);
#90=EDGE_CURVE('',#77,#78,#45,.T.);
#91=EDGE_CURVE('',#78,#79,#46,.T.);
#92=EDGE_CURVE('',#79,#76,#47,.T.);
#93=EDGE_CURVE('',#80,#76,#48,.T.);
#94=EDGE_CURVE('',#81,#80,#49,.T.);
#95=EDGE_CURVE('',#81,#77,#50,.T.);
#96=EDGE_CURVE('',#79,#82,#51,.T.);
#97=EDGE_CURVE('',#80,#82,#52,.T.);
#98=EDGE_CURVE('',#83,#78,#53,.T.);
#99=EDGE_CURVE('',#82,#83,#54,.T.);
#100=EDGE_CURVE('',#83,#81,#55,.T.);
#101=ORIENTED_EDGE('',*,*,#84,.T.);
#102=ORIENTED_EDGE('',*,*,#85,.T.);
#103=ORIENTED_EDGE('',*,*,#86,.T.);
#104=ORIENTED_EDGE('',*,*,#85,.F.);
#105=ORIENTED_EDGE('',*,*,#86,.F.);
#106=ORIENTED_EDGE('',*,*,#87,.T.);
#107=ORIENTED_EDGE('',*,*,#88,.F.);
#108=ORIENTED_EDGE('',*,*,#87,.F.);
#109=ORIENTED_EDGE('',*,*,#89,.T.);
#110=ORIENTED_EDGE('',*,*,#90,.T.);
#111=ORIENTED_EDGE('',*,*,#91,.T.);
#112=ORIENTED_EDGE('',*,*,#92,.T.);
#113=ORIENTED_EDGE('',*,*,#84,.F.);
#114=ORIENTED_EDGE('',*,*,#89,.F.);
#115=ORIENTED_EDGE('',*,*,#93,.F.);
#116=ORIENTED_EDGE('',*,*,#94,.F.);
#117=ORIENTED_EDGE('',*,*,#95,.T.);
#118=ORIENTED_EDGE('',*,*,#93,.T.);
#119=ORIENTED_EDGE('',*,*,#92,.F.);
#120=ORIENTED_EDGE('',*,*,#96,.T.);
#121=ORIENTED_EDGE('',*,*,#97,.F.);
#122=ORIENTED_EDGE('',*,*,#98,.F.);
#123=ORIENTED_EDGE('',*,*,#99,.F.);
#124=ORIENTED_EDGE('',*,*,#96,.F.);
#125=ORIENTED_EDGE('',*,*,#91,.F.);
#126=ORIENTED_EDGE('',*,*,#98,.T.);
#127=ORIENTED_EDGE('',*,*,#90,.F.);
#128=ORIENTED_EDGE('',*,*,#95,.F.);
#129=ORIENTED_EDGE('',*,*,#100,.F.);
#130=ORIENTED_EDGE('',*,*,#94,.T.);
#131=ORIENTED_EDGE('',*,*,#97,.T.);
#132=ORIENTED_EDGE('',*,*,#99,.T.);
#133=ORIENTED_EDGE('',*,*,#100,.T.);
#134=ORIENTED_EDGE('',*,*,#88,.T.);
#135=CONICAL_SURFACE('',#158,1.15,0.785398163397448);
#136=ADVANCED_FACE('',(#24),#135,.F.);
#137=ADVANCED_FACE('',(#25),#23,.F.);
#138=ADVANCED_FACE('',(#26,#15),#17,.T.);
#139=ADVANCED_FACE('',(#27),#18,.F.);
#140=ADVANCED_FACE('',(#28),#19,.T.);
#141=ADVANCED_FACE('',(#29),#20,.F.);
#142=ADVANCED_FACE('',(#30),#21,.T.);
#143=ADVANCED_FACE('',(#31,#16),#22,.F.);
#144=CLOSED_SHELL('',(#136,#137,#138,#139,#140,#141,#142,#143));
#145=DERIVED_UNIT_ELEMENT(#147,1.);
#146=DERIVED_UNIT_ELEMENT(#249,-3.);
#147=(
MASS_UNIT()
NAMED_UNIT(*)
SI_UNIT(.KILO.,.GRAM.)
);
#148=DERIVED_UNIT((#145,#146));
#149=MEASURE_REPRESENTATION_ITEM('density measure',
POSITIVE_RATIO_MEASURE(7850.),#148);
#150=PROPERTY_DEFINITION_REPRESENTATION(#155,#152);
#151=PROPERTY_DEFINITION_REPRESENTATION(#156,#153);
#152=REPRESENTATION('material name',(#154),#246);
#153=REPRESENTATION('density',(#149),#246);
#154=DESCRIPTIVE_REPRESENTATION_ITEM('Acier','Acier');
#155=PROPERTY_DEFINITION('material property','material name',#256);
#156=PROPERTY_DEFINITION('material property','density of part',#256);
#157=AXIS2_PLACEMENT_3D('',#207,#169,#170);
#158=AXIS2_PLACEMENT_3D('',#208,#171,#172);
#159=AXIS2_PLACEMENT_3D('',#210,#173,#174);
#160=AXIS2_PLACEMENT_3D('',#213,#176,#177);
#161=AXIS2_PLACEMENT_3D('',#214,#178,#179);
#162=AXIS2_PLACEMENT_3D('',#217,#181,#182);
#163=AXIS2_PLACEMENT_3D('',#218,#183,#184);
#164=AXIS2_PLACEMENT_3D('',#227,#189,#190);
#165=AXIS2_PLACEMENT_3D('',#233,#194,#195);
#166=AXIS2_PLACEMENT_3D('',#237,#198,#199);
#167=AXIS2_PLACEMENT_3D('',#241,#202,#203);
#168=AXIS2_PLACEMENT_3D('',#243,#205,#206);
#169=DIRECTION('axis',(0.,0.,1.));
#170=DIRECTION('refdir',(1.,0.,0.));
#171=DIRECTION('center_axis',(0.,0.,1.));
#172=DIRECTION('ref_axis',(1.,0.,0.));
#173=DIRECTION('center_axis',(0.,0.,1.));
#174=DIRECTION('ref_axis',(1.,0.,0.));
#175=DIRECTION('',(0.707106781186548,8.65956056235493E-17,-0.707106781186548));
#176=DIRECTION('center_axis',(0.,0.,-1.));
#177=DIRECTION('ref_axis',(1.,0.,0.));
#178=DIRECTION('center_axis',(0.,0.,-1.));
#179=DIRECTION('ref_axis',(1.,0.,0.));
#180=DIRECTION('',(0.,0.,-1.));
#181=DIRECTION('center_axis',(0.,0.,1.));
#182=DIRECTION('ref_axis',(1.,0.,0.));
#183=DIRECTION('center_axis',(0.,0.,1.));
#184=DIRECTION('ref_axis',(1.,0.,0.));
#185=DIRECTION('',(0.61394061351492,-0.789352217376326,0.));
#186=DIRECTION('',(0.,1.,0.));
#187=DIRECTION('',(-1.,0.,0.));
#188=DIRECTION('',(0.,-1.,0.));
#189=DIRECTION('center_axis',(0.789352217376326,0.61394061351492,0.));
#190=DIRECTION('ref_axis',(0.61394061351492,-0.789352217376326,0.));
#191=DIRECTION('',(0.,0.,1.));
#192=DIRECTION('',(-0.61394061351492,0.789352217376326,0.));
#193=DIRECTION('',(0.,0.,1.));
#194=DIRECTION('center_axis',(-1.,0.,0.));
#195=DIRECTION('ref_axis',(0.,-1.,0.));
#196=DIRECTION('',(0.,0.970142500145332,-0.242535625036333));
#197=DIRECTION('',(0.,1.,0.));
#198=DIRECTION('center_axis',(0.,-0.242535625036333,-0.970142500145332));
#199=DIRECTION('ref_axis',(0.,0.970142500145332,-0.242535625036333));
#200=DIRECTION('',(0.,-0.970142500145332,0.242535625036333));
#201=DIRECTION('',(1.,0.,0.));
#202=DIRECTION('center_axis',(1.,0.,0.));
#203=DIRECTION('ref_axis',(0.,1.,0.));
#204=DIRECTION('',(0.,-1.,0.));
#205=DIRECTION('center_axis',(0.,0.,1.));
#206=DIRECTION('ref_axis',(1.,0.,0.));
#207=CARTESIAN_POINT('',(0.,0.,0.));
#208=CARTESIAN_POINT('Origin',(1.74999996088445,5.24999988265336,1.65));
#209=CARTESIAN_POINT('',(0.249999960884452,5.24999988265336,2.));
#210=CARTESIAN_POINT('Origin',(1.74999996088445,5.24999988265336,2.));
#211=CARTESIAN_POINT('',(0.949999960884452,5.24999988265336,1.3));
#212=CARTESIAN_POINT('',(0.599999960884452,5.24999988265336,1.65));
#213=CARTESIAN_POINT('Origin',(1.74999996088445,5.24999988265336,1.3));
#214=CARTESIAN_POINT('Origin',(1.74999996088445,5.24999988265336,2.));
#215=CARTESIAN_POINT('',(0.949999960884452,5.24999988265336,0.));
#216=CARTESIAN_POINT('',(0.949999960884452,5.24999988265336,2.));
#217=CARTESIAN_POINT('Origin',(1.74999996088445,5.24999988265336,0.));
#218=CARTESIAN_POINT('Origin',(1.75000002607703,7.50000011175871,2.));
#219=CARTESIAN_POINT('',(0.,4.50000006705523,2.));
#220=CARTESIAN_POINT('',(3.50000005215406,0.,2.));
#221=CARTESIAN_POINT('',(-0.397115390532865,5.01057699774034,2.));
#222=CARTESIAN_POINT('',(3.50000005215406,7.00000022351742,2.));
#223=CARTESIAN_POINT('',(3.50000005215406,15.0000002235174,2.));
#224=CARTESIAN_POINT('',(0.,7.00000022351742,2.));
#225=CARTESIAN_POINT('',(0.875000013038516,7.00000022351742,2.));
#226=CARTESIAN_POINT('',(0.,0.,2.));
#227=CARTESIAN_POINT('Origin',(0.,4.50000006705523,2.));
#228=CARTESIAN_POINT('',(0.,4.50000006705523,0.));
#229=CARTESIAN_POINT('',(0.,4.50000006705523,1.));
#230=CARTESIAN_POINT('',(3.50000005215406,0.,0.));
#231=CARTESIAN_POINT('',(-0.397115390532865,5.01057699774034,0.));
#232=CARTESIAN_POINT('',(3.50000005215406,0.,0.));
#233=CARTESIAN_POINT('Origin',(0.,15.0000002235174,0.));
#234=CARTESIAN_POINT('',(0.,15.0000002235174,0.));
#235=CARTESIAN_POINT('',(0.,11.0000002235174,1.));
#236=CARTESIAN_POINT('',(0.,0.,0.));
#237=CARTESIAN_POINT('Origin',(0.,7.00000022351742,2.));
#238=CARTESIAN_POINT('',(3.50000005215406,15.0000002235174,0.));
#239=CARTESIAN_POINT('',(3.50000005215406,3.94117658892099,2.76470590864911));
#240=CARTESIAN_POINT('',(0.,15.0000002235174,0.));
#241=CARTESIAN_POINT('Origin',(3.50000005215406,0.,0.));
#242=CARTESIAN_POINT('',(3.50000005215406,15.0000002235174,0.));
#243=CARTESIAN_POINT('Origin',(1.75000002607703,7.50000011175871,0.));
#244=UNCERTAINTY_MEASURE_WITH_UNIT(LENGTH_MEASURE(0.01),#248,
'DISTANCE_ACCURACY_VALUE',
'Maximum model space distance between geometric entities at asserted c
onnectivities');
#245=UNCERTAINTY_MEASURE_WITH_UNIT(LENGTH_MEASURE(0.01),#248,
'DISTANCE_ACCURACY_VALUE',
'Maximum model space distance between geometric entities at asserted c
onnectivities');
#246=(
GEOMETRIC_REPRESENTATION_CONTEXT(3)
GLOBAL_UNCERTAINTY_ASSIGNED_CONTEXT((#244))
GLOBAL_UNIT_ASSIGNED_CONTEXT((#248,#250,#251))
REPRESENTATION_CONTEXT('','3D')
);
#247=(
GEOMETRIC_REPRESENTATION_CONTEXT(3)
GLOBAL_UNCERTAINTY_ASSIGNED_CONTEXT((#245))
GLOBAL_UNIT_ASSIGNED_CONTEXT((#248,#250,#251))
REPRESENTATION_CONTEXT('','3D')
);
#248=(
LENGTH_UNIT()
NAMED_UNIT(*)
SI_UNIT(.MILLI.,.METRE.)
);
#249=(
LENGTH_UNIT()
NAMED_UNIT(*)
SI_UNIT($,.METRE.)
);
#250=(
NAMED_UNIT(*)
PLANE_ANGLE_UNIT()
SI_UNIT($,.RADIAN.)
);
#251=(
NAMED_UNIT(*)
SI_UNIT($,.STERADIAN.)
SOLID_ANGLE_UNIT()
);
#252=SHAPE_DEFINITION_REPRESENTATION(#253,#254);
#253=PRODUCT_DEFINITION_SHAPE('',$,#256);
#254=SHAPE_REPRESENTATION('',(#157),#246);
#255=PRODUCT_DEFINITION_CONTEXT('part definition',#260,'design');
#256=PRODUCT_DEFINITION('Petite pi\X\E8ce','Petite pi\X\E8ce v5',#257,#255);
#257=PRODUCT_DEFINITION_FORMATION('',$,#262);
#258=PRODUCT_RELATED_PRODUCT_CATEGORY('Petite pi\X\E8ce v5',
'Petite pi\X\E8ce v5',(#262));
#259=APPLICATION_PROTOCOL_DEFINITION('international standard',
'automotive_design',2009,#260);
#260=APPLICATION_CONTEXT(
'Core Data for Automotive Mechanical Design Process');
#261=PRODUCT_CONTEXT('part definition',#260,'mechanical');
#262=PRODUCT('Petite pi\X\E8ce','Petite pi\X\E8ce v5',$,(#261));
#263=PRESENTATION_STYLE_ASSIGNMENT((#264));
#264=SURFACE_STYLE_USAGE(.BOTH.,#265);
#265=SURFACE_SIDE_STYLE('',(#266));
#266=SURFACE_STYLE_FILL_AREA(#267);
#267=FILL_AREA_STYLE('Acier - Satin\X\E9',(#268));
#268=FILL_AREA_STYLE_COLOUR('Acier - Satin\X\E9',#269);
#269=COLOUR_RGB('Acier - Satin\X\E9',0.627450980392157,0.627450980392157,
0.627450980392157);
ENDSEC;
END-ISO-10303-21;
