ISO-10303-21;
HEADER;
FILE_DESCRIPTION (( 'STEP AP214' ),
    '1' );
FILE_NAME ('dispositif-acquisition-side23.STEP',
    '2024-03-11T21:22:50',
    ( '' ),
    ( '' ),
    'SwSTEP 2.0',
    'SolidWorks 2023',
    '' );
FILE_SCHEMA (( 'AUTOMOTIVE_DESIGN' ));
ENDSEC;

DATA;
#1 = CARTESIAN_POINT ( 'NONE',  ( 2.000000000000000000, 27.03869047619047805, -50.36607142857141639 ) ) ;
#2 = PLANE ( 'NONE',  #145 ) ;
#3 = EDGE_CURVE ( 'NONE', #120, #80, #334, .T. ) ;
#4 = PLANE ( 'NONE',  #110 ) ;
#5 = LINE ( 'NONE', #213, #139 ) ;
#6 = CARTESIAN_POINT ( 'NONE',  ( 2.000000000000000000, -30.96130952380952550, 39.63392857142857650 ) ) ;
#7 = LINE ( 'NONE', #113, #261 ) ;
#8 = DIRECTION ( 'NONE',  ( 0.000000000000000000, 0.000000000000000000, -1.000000000000000000 ) ) ;
#9 = EDGE_CURVE ( 'NONE', #43, #120, #69, .T. ) ;
#10 = VERTEX_POINT ( 'NONE', #208 ) ;
#11 = CARTESIAN_POINT ( 'NONE',  ( 2.000000000000000000, 4.038690476190477163, 24.63392857142857650 ) ) ;
#12 = ORIENTED_EDGE ( 'NONE', *, *, #271, .T. ) ;
#13 = CARTESIAN_POINT ( 'NONE',  ( 2.000000000000000000, -30.96130952380952550, 39.63392857142857650 ) ) ;
#14 = CARTESIAN_POINT ( 'NONE',  ( 2.000000000000000000, -30.96130952380952550, 39.63392857142857650 ) ) ;
#15 = ORIENTED_EDGE ( 'NONE', *, *, #9, .T. ) ;
#16 = APPLICATION_PROTOCOL_DEFINITION ( 'draft international standard', 'automotive_design', 1998, #193 ) ;
#17 = CARTESIAN_POINT ( 'NONE',  ( 0.000000000000000000, 4.038690476190477163, -34.36607142857141639 ) ) ;
#18 = VECTOR ( 'NONE', #309, 1000.000000000000000 ) ;
#19 = DIRECTION ( 'NONE',  ( 0.000000000000000000, 0.000000000000000000, -1.000000000000000000 ) ) ;
#20 = VERTEX_POINT ( 'NONE', #308 ) ;
#21 = APPLICATION_PROTOCOL_DEFINITION ( 'draft international standard', 'automotive_design', 1998, #237 ) ;
#22 = VERTEX_POINT ( 'NONE', #148 ) ;
#23 = AXIS2_PLACEMENT_3D ( 'NONE', #272, #223, #220 ) ;
#24 = DIRECTION ( 'NONE',  ( 0.000000000000000000, -1.000000000000000000, -2.392722035830079465E-16 ) ) ;
#25 = LINE ( 'NONE', #165, #122 ) ;
#26 = DIRECTION ( 'NONE',  ( 1.000000000000000000, -0.000000000000000000, -0.000000000000000000 ) ) ;
#27 = ADVANCED_FACE ( 'NONE', ( #252 ), #283, .F. ) ;
#28 = DIRECTION ( 'NONE',  ( 1.000000000000000000, -0.000000000000000000, -0.000000000000000000 ) ) ;
#29 = CARTESIAN_POINT ( 'NONE',  ( 2.000000000000000000, 0.000000000000000000, 0.000000000000000000 ) ) ;
#30 = STYLED_ITEM ( 'NONE', ( #170 ), #163 ) ;
#31 = CIRCLE ( 'NONE', #262, 1.000000000000000888 ) ;
#32 = LINE ( 'NONE', #81, #42 ) ;
#33 = PRODUCT_DEFINITION_CONTEXT ( 'detailed design', #193, 'design' ) ;
#34 = CARTESIAN_POINT ( 'NONE',  ( 0.000000000000000000, 27.03869047619047805, -50.36607142857141639 ) ) ;
#35 = EDGE_LOOP ( 'NONE', ( #152, #183, #202, #181 ) ) ;
#36 = LINE ( 'NONE', #66, #282 ) ;
#37 = UNCERTAINTY_MEASURE_WITH_UNIT (LENGTH_MEASURE( 1.000000000000000082E-05 ), #307, 'distance_accuracy_value', 'NONE');
#38 = VERTEX_POINT ( 'NONE', #40 ) ;
#39 = DIRECTION ( 'NONE',  ( 0.000000000000000000, 0.000000000000000000, 1.000000000000000000 ) ) ;
#40 = CARTESIAN_POINT ( 'NONE',  ( 2.000000000000000000, -30.96130952380952550, 39.63392857142857650 ) ) ;
#41 = ORIENTED_EDGE ( 'NONE', *, *, #216, .T. ) ;
#42 = VECTOR ( 'NONE', #321, 1000.000000000000000 ) ;
#43 = VERTEX_POINT ( 'NONE', #17 ) ;
#44 = CARTESIAN_POINT ( 'NONE',  ( 0.000000000000000000, 27.03869047619047805, 39.63392857142857650 ) ) ;
#45 = VERTEX_POINT ( 'NONE', #51 ) ;
#46 = AXIS2_PLACEMENT_3D ( 'NONE', #278, #184, #125 ) ;
#47 = PLANE ( 'NONE',  #291 ) ;
#48 = AXIS2_PLACEMENT_3D ( 'NONE', #108, #322, #82 ) ;
#49 = AXIS2_PLACEMENT_3D ( 'NONE', #14, #119, #178 ) ;
#50 = FACE_BOUND ( 'NONE', #128, .T. ) ;
#51 = CARTESIAN_POINT ( 'NONE',  ( 2.000000000000000000, 4.038690476190477163, 25.63392857142858006 ) ) ;
#52 = AXIS2_PLACEMENT_3D ( 'NONE', #298, #317, #8 ) ;
#53 = DIRECTION ( 'NONE',  ( 0.000000000000000000, 0.000000000000000000, -1.000000000000000000 ) ) ;
#54 = ORIENTED_EDGE ( 'NONE', *, *, #83, .T. ) ;
#55 = FILL_AREA_STYLE ('',( #219 ) ) ;
#56 = FACE_OUTER_BOUND ( 'NONE', #185, .T. ) ;
#57 = ORIENTED_EDGE ( 'NONE', *, *, #267, .F. ) ;
#58 = CARTESIAN_POINT ( 'NONE',  ( 0.000000000000000000, -30.96130952380952550, -50.36607142857143060 ) ) ;
#59 = ORIENTED_EDGE ( 'NONE', *, *, #136, .F. ) ;
#60 = CARTESIAN_POINT ( 'NONE',  ( 0.000000000000000000, 0.000000000000000000, 0.000000000000000000 ) ) ;
#61 = CLOSED_SHELL ( 'NONE', ( #286, #132, #99, #27, #64, #107, #91, #329, #204, #259 ) ) ;
#62 = EDGE_LOOP ( 'NONE', ( #238, #159, #65, #88 ) ) ;
#63 = FACE_OUTER_BOUND ( 'NONE', #253, .T. ) ;
#64 = ADVANCED_FACE ( 'NONE', ( #196 ), #2, .F. ) ;
#65 = ORIENTED_EDGE ( 'NONE', *, *, #224, .T. ) ;
#66 = CARTESIAN_POINT ( 'NONE',  ( 2.000000000000000000, 27.03869047619047805, 39.63392857142857650 ) ) ;
#67 = CARTESIAN_POINT ( 'NONE',  ( 2.000000000000000000, 4.038690476190477163, 24.63392857142857650 ) ) ;
#68 = ORIENTED_EDGE ( 'NONE', *, *, #70, .F. ) ;
#69 = CIRCLE ( 'NONE', #101, 1.000000000000000888 ) ;
#70 = EDGE_CURVE ( 'NONE', #20, #94, #312, .T. ) ;
#71 = EDGE_LOOP ( 'NONE', ( #118, #235, #327, #129 ) ) ;
#72 = DIRECTION ( 'NONE',  ( 1.000000000000000000, -0.000000000000000000, -0.000000000000000000 ) ) ;
#73 = CIRCLE ( 'NONE', #257, 1.000000000000000888 ) ;
#74 = DIRECTION ( 'NONE',  ( 0.000000000000000000, -0.000000000000000000, -1.000000000000000000 ) ) ;
#75 = VECTOR ( 'NONE', #158, 1000.000000000000000 ) ;
#76 = DIRECTION ( 'NONE',  ( 0.000000000000000000, -1.000000000000000000, 0.000000000000000000 ) ) ;
#77 =( GEOMETRIC_REPRESENTATION_CONTEXT ( 3 ) GLOBAL_UNCERTAINTY_ASSIGNED_CONTEXT ( ( #301 ) ) GLOBAL_UNIT_ASSIGNED_CONTEXT ( ( #274, #173, #270 ) ) REPRESENTATION_CONTEXT ( 'NONE', 'WORKASPACE' ) );
#78 = DIRECTION ( 'NONE',  ( 0.000000000000000000, 0.000000000000000000, -1.000000000000000000 ) ) ;
#79 = EDGE_CURVE ( 'NONE', #80, #230, #31, .T. ) ;
#80 = VERTEX_POINT ( 'NONE', #290 ) ;
#81 = CARTESIAN_POINT ( 'NONE',  ( 2.000000000000000000, 27.03869047619047805, 39.63392857142857650 ) ) ;
#82 = DIRECTION ( 'NONE',  ( 0.000000000000000000, 0.000000000000000000, -1.000000000000000000 ) ) ;
#83 = EDGE_CURVE ( 'NONE', #22, #279, #93, .T. ) ;
#84 = AXIS2_PLACEMENT_3D ( 'NONE', #192, #294, #53 ) ;
#85 = LINE ( 'NONE', #6, #92 ) ;
#86 = EDGE_LOOP ( 'NONE', ( #59, #57, #171, #96 ) ) ;
#87 = FACE_OUTER_BOUND ( 'NONE', #86, .T. ) ;
#88 = ORIENTED_EDGE ( 'NONE', *, *, #3, .F. ) ;
#89 = LINE ( 'NONE', #197, #245 ) ;
#90 = ORIENTED_EDGE ( 'NONE', *, *, #323, .F. ) ;
#91 = ADVANCED_FACE ( 'NONE', ( #316, #50, #242 ), #4, .T. ) ;
#92 = VECTOR ( 'NONE', #142, 1000.000000000000000 ) ;
#93 = CIRCLE ( 'NONE', #156, 1.000000000000000888 ) ;
#94 = VERTEX_POINT ( 'NONE', #137 ) ;
#95 = EDGE_LOOP ( 'NONE', ( #234, #143, #255, #180 ) ) ;
#96 = ORIENTED_EDGE ( 'NONE', *, *, #79, .T. ) ;
#97 = CARTESIAN_POINT ( 'NONE',  ( 2.000000000000000000, 27.03869047619047805, -50.36607142857141639 ) ) ;
#98 = ORIENTED_EDGE ( 'NONE', *, *, #191, .F. ) ;
#99 = ADVANCED_FACE ( 'NONE', ( #106 ), #47, .F. ) ;
#100 = DIRECTION ( 'NONE',  ( 0.000000000000000000, 0.000000000000000000, -1.000000000000000000 ) ) ;
#101 = AXIS2_PLACEMENT_3D ( 'NONE', #212, #210, #289 ) ;
#102 = DIRECTION ( 'NONE',  ( 1.000000000000000000, -0.000000000000000000, -0.000000000000000000 ) ) ;
#103 = FACE_OUTER_BOUND ( 'NONE', #62, .T. ) ;
#104 = EDGE_CURVE ( 'NONE', #45, #249, #73, .T. ) ;
#105 = DIRECTION ( 'NONE',  ( -1.000000000000000000, 0.000000000000000000, -0.000000000000000000 ) ) ;
#106 = FACE_OUTER_BOUND ( 'NONE', #154, .T. ) ;
#107 = ADVANCED_FACE ( 'NONE', ( #217 ), #313, .F. ) ;
#108 = CARTESIAN_POINT ( 'NONE',  ( 2.000000000000000000, 4.038690476190477163, 24.63392857142857650 ) ) ;
#109 = DIRECTION ( 'NONE',  ( 1.000000000000000000, -0.000000000000000000, -0.000000000000000000 ) ) ;
#110 = AXIS2_PLACEMENT_3D ( 'NONE', #29, #134, #292 ) ;
#111 = PRODUCT_DEFINITION_SHAPE ( 'NONE', 'NONE',  #162 ) ;
#112 = EDGE_CURVE ( 'NONE', #229, #20, #161, .T. ) ;
#113 = CARTESIAN_POINT ( 'NONE',  ( 2.000000000000000000, -30.96130952380952550, -50.36607142857143060 ) ) ;
#114 = CARTESIAN_POINT ( 'NONE',  ( 2.000000000000000000, 4.038690476190477163, 23.63392857142857650 ) ) ;
#115 = VECTOR ( 'NONE', #102, 1000.000000000000000 ) ;
#116 = EDGE_LOOP ( 'NONE', ( #138, #177, #68, #277 ) ) ;
#117 = DIRECTION ( 'NONE',  ( 1.000000000000000000, -0.000000000000000000, -0.000000000000000000 ) ) ;
#118 = ORIENTED_EDGE ( 'NONE', *, *, #247, .F. ) ;
#119 = DIRECTION ( 'NONE',  ( -0.000000000000000000, 1.000000000000000000, 0.000000000000000000 ) ) ;
#120 = VERTEX_POINT ( 'NONE', #215 ) ;
#121 = DIRECTION ( 'NONE',  ( -1.000000000000000000, -0.000000000000000000, -0.000000000000000000 ) ) ;
#122 = VECTOR ( 'NONE', #265, 1000.000000000000000 ) ;
#123 = AXIS2_PLACEMENT_3D ( 'NONE', #141, #109, #246 ) ;
#124 = ORIENTED_EDGE ( 'NONE', *, *, #314, .F. ) ;
#125 = DIRECTION ( 'NONE',  ( 0.000000000000000000, 0.000000000000000000, -1.000000000000000000 ) ) ;
#126 =( NAMED_UNIT ( * ) SI_UNIT ( $, .STERADIAN. ) SOLID_ANGLE_UNIT ( ) );
#127 = ORIENTED_EDGE ( 'NONE', *, *, #267, .T. ) ;
#128 = EDGE_LOOP ( 'NONE', ( #320, #331 ) ) ;
#129 = ORIENTED_EDGE ( 'NONE', *, *, #140, .F. ) ;
#130 = DIRECTION ( 'NONE',  ( 0.000000000000000000, -2.392722035830079465E-16, 1.000000000000000000 ) ) ;
#131 = CARTESIAN_POINT ( 'NONE',  ( 2.000000000000000000, 4.038690476190477163, 24.63392857142857650 ) ) ;
#132 = ADVANCED_FACE ( 'NONE', ( #103 ), #263, .F. ) ;
#133 = VECTOR ( 'NONE', #100, 1000.000000000000000 ) ;
#134 = DIRECTION ( 'NONE',  ( 1.000000000000000000, 0.000000000000000000, 0.000000000000000000 ) ) ;
#135 = PRESENTATION_LAYER_ASSIGNMENT (  '', '', ( #30 ) ) ;
#136 = EDGE_CURVE ( 'NONE', #43, #230, #5, .T. ) ;
#137 = CARTESIAN_POINT ( 'NONE',  ( 2.000000000000000000, 27.03869047619047805, 39.63392857142857650 ) ) ;
#138 = ORIENTED_EDGE ( 'NONE', *, *, #314, .T. ) ;
#139 = VECTOR ( 'NONE', #72, 1000.000000000000000 ) ;
#140 = EDGE_CURVE ( 'NONE', #22, #249, #25, .T. ) ;
#141 = CARTESIAN_POINT ( 'NONE',  ( 2.000000000000000000, 4.038690476190477163, -35.36607142857142350 ) ) ;
#142 = DIRECTION ( 'NONE',  ( -1.000000000000000000, -0.000000000000000000, -0.000000000000000000 ) ) ;
#143 = ORIENTED_EDGE ( 'NONE', *, *, #209, .F. ) ;
#144 = DIRECTION ( 'NONE',  ( 1.000000000000000000, -0.000000000000000000, -0.000000000000000000 ) ) ;
#145 = AXIS2_PLACEMENT_3D ( 'NONE', #260, #130, #24 ) ;
#146 = ORIENTED_EDGE ( 'NONE', *, *, #104, .F. ) ;
#147 = CARTESIAN_POINT ( 'NONE',  ( 0.000000000000000000, 27.03869047619047805, 39.63392857142857650 ) ) ;
#148 = CARTESIAN_POINT ( 'NONE',  ( 0.000000000000000000, 4.038690476190477163, 23.63392857142857650 ) ) ;
#149 = ORIENTED_EDGE ( 'NONE', *, *, #166, .F. ) ;
#150 = DIRECTION ( 'NONE',  ( 1.000000000000000000, 0.000000000000000000, 0.000000000000000000 ) ) ;
#151 = ORIENTED_EDGE ( 'NONE', *, *, #140, .T. ) ;
#152 = ORIENTED_EDGE ( 'NONE', *, *, #166, .T. ) ;
#153 = DIRECTION ( 'NONE',  ( -1.000000000000000000, -0.000000000000000000, -0.000000000000000000 ) ) ;
#154 = EDGE_LOOP ( 'NONE', ( #226, #169, #175, #12 ) ) ;
#155 = EDGE_CURVE ( 'NONE', #303, #179, #218, .T. ) ;
#156 = AXIS2_PLACEMENT_3D ( 'NONE', #266, #195, #78 ) ;
#157 = AXIS2_PLACEMENT_3D ( 'NONE', #187, #335, #74 ) ;
#158 = DIRECTION ( 'NONE',  ( -0.000000000000000000, -0.000000000000000000, 1.000000000000000000 ) ) ;
#159 = ORIENTED_EDGE ( 'NONE', *, *, #136, .T. ) ;
#160 = EDGE_LOOP ( 'NONE', ( #54, #299 ) ) ;
#161 = LINE ( 'NONE', #1, #18 ) ;
#162 = PRODUCT_DEFINITION ( 'UNKNOWN', '', #244, #33 ) ;
#163 = MANIFOLD_SOLID_BREP ( 'Ø2.0mm Dowel Hole1', #61 ) ;
#164 = CARTESIAN_POINT ( 'NONE',  ( 2.000000000000000000, 27.03869047619047805, 39.63392857142857650 ) ) ;
#165 = CARTESIAN_POINT ( 'NONE',  ( 2.000000000000000000, 4.038690476190477163, 23.63392857142857650 ) ) ;
#166 = EDGE_CURVE ( 'NONE', #251, #10, #318, .T. ) ;
#167 = SURFACE_STYLE_USAGE ( .BOTH. , #203 ) ;
#168 = AXIS2_PLACEMENT_3D ( 'NONE', #11, #117, #227 ) ;
#169 = ORIENTED_EDGE ( 'NONE', *, *, #198, .F. ) ;
#170 = PRESENTATION_STYLE_ASSIGNMENT (( #167 ) ) ;
#171 = ORIENTED_EDGE ( 'NONE', *, *, #3, .T. ) ;
#172 = VECTOR ( 'NONE', #121, 1000.000000000000000 ) ;
#173 =( NAMED_UNIT ( * ) PLANE_ANGLE_UNIT ( ) SI_UNIT ( $, .RADIAN. ) );
#174 = EDGE_CURVE ( 'NONE', #249, #45, #189, .T. ) ;
#175 = ORIENTED_EDGE ( 'NONE', *, *, #216, .F. ) ;
#176 = DIRECTION ( 'NONE',  ( 1.000000000000000000, -0.000000000000000000, -0.000000000000000000 ) ) ;
#177 = ORIENTED_EDGE ( 'NONE', *, *, #271, .F. ) ;
#178 = DIRECTION ( 'NONE',  ( 0.000000000000000000, -0.000000000000000000, 1.000000000000000000 ) ) ;
#179 = VERTEX_POINT ( 'NONE', #200 ) ;
#180 = ORIENTED_EDGE ( 'NONE', *, *, #198, .T. ) ;
#181 = ORIENTED_EDGE ( 'NONE', *, *, #209, .T. ) ;
#182 = DIRECTION ( 'NONE',  ( 0.000000000000000000, 0.000000000000000000, -1.000000000000000000 ) ) ;
#183 = ORIENTED_EDGE ( 'NONE', *, *, #310, .F. ) ;
#184 = DIRECTION ( 'NONE',  ( 1.000000000000000000, -0.000000000000000000, -0.000000000000000000 ) ) ;
#185 = EDGE_LOOP ( 'NONE', ( #98, #228, #151, #199 ) ) ;
#186 =( GEOMETRIC_REPRESENTATION_CONTEXT ( 3 ) GLOBAL_UNCERTAINTY_ASSIGNED_CONTEXT ( ( #37 ) ) GLOBAL_UNIT_ASSIGNED_CONTEXT ( ( #307, #300, #126 ) ) REPRESENTATION_CONTEXT ( 'NONE', 'WORKASPACE' ) );
#187 = CARTESIAN_POINT ( 'NONE',  ( 2.000000000000000000, 27.03869047619047805, 39.63392857142857650 ) ) ;
#188 = COLOUR_RGB ( '',0.7921568627450980005, 0.8196078431372548767, 0.9333333333333333481 ) ;
#189 = CIRCLE ( 'NONE', #48, 1.000000000000000888 ) ;
#190 = DIRECTION ( 'NONE',  ( 0.000000000000000000, 0.000000000000000000, -1.000000000000000000 ) ) ;
#191 = EDGE_CURVE ( 'NONE', #279, #45, #89, .T. ) ;
#192 = CARTESIAN_POINT ( 'NONE',  ( 2.000000000000000000, 4.038690476190477163, -35.36607142857142350 ) ) ;
#193 = APPLICATION_CONTEXT ( 'automotive_design' ) ;
#194 = CIRCLE ( 'NONE', #46, 1.000000000000000888 ) ;
#195 = DIRECTION ( 'NONE',  ( 1.000000000000000000, -0.000000000000000000, -0.000000000000000000 ) ) ;
#196 = FACE_OUTER_BOUND ( 'NONE', #35, .T. ) ;
#197 = CARTESIAN_POINT ( 'NONE',  ( 2.000000000000000000, 4.038690476190477163, 25.63392857142858006 ) ) ;
#198 = EDGE_CURVE ( 'NONE', #38, #179, #85, .T. ) ;
#199 = ORIENTED_EDGE ( 'NONE', *, *, #174, .T. ) ;
#200 = CARTESIAN_POINT ( 'NONE',  ( 0.000000000000000000, -30.96130952380952550, 39.63392857142857650 ) ) ;
#201 = DIRECTION ( 'NONE',  ( -1.000000000000000000, -0.000000000000000000, -0.000000000000000000 ) ) ;
#202 = ORIENTED_EDGE ( 'NONE', *, *, #112, .F. ) ;
#203 = SURFACE_SIDE_STYLE ('',( #225 ) ) ;
#204 = ADVANCED_FACE ( 'NONE', ( #87 ), #268, .F. ) ;
#205 = AXIS2_PLACEMENT_3D ( 'NONE', #60, #39, #150 ) ;
#206 = PLANE ( 'NONE',  #293 ) ;
#207 = VECTOR ( 'NONE', #239, 1000.000000000000000 ) ;
#208 = CARTESIAN_POINT ( 'NONE',  ( 0.000000000000000000, 27.03869047619047805, -50.36607142857141639 ) ) ;
#209 = EDGE_CURVE ( 'NONE', #229, #251, #7, .T. ) ;
#210 = DIRECTION ( 'NONE',  ( 1.000000000000000000, -0.000000000000000000, -0.000000000000000000 ) ) ;
#211 = ORIENTED_EDGE ( 'NONE', *, *, #112, .T. ) ;
#212 = CARTESIAN_POINT ( 'NONE',  ( 0.000000000000000000, 4.038690476190477163, -35.36607142857142350 ) ) ;
#213 = CARTESIAN_POINT ( 'NONE',  ( 2.000000000000000000, 4.038690476190477163, -34.36607142857141639 ) ) ;
#214 = VECTOR ( 'NONE', #256, 1000.000000000000000 ) ;
#215 = CARTESIAN_POINT ( 'NONE',  ( 0.000000000000000000, 4.038690476190477163, -36.36607142857142350 ) ) ;
#216 = EDGE_CURVE ( 'NONE', #94, #38, #32, .T. ) ;
#217 = FACE_OUTER_BOUND ( 'NONE', #116, .T. ) ;
#218 = LINE ( 'NONE', #315, #326 ) ;
#219 = FILL_AREA_STYLE_COLOUR ( '', #188 ) ;
#220 = DIRECTION ( 'NONE',  ( 0.000000000000000000, 0.000000000000000000, -1.000000000000000000 ) ) ;
#221 = PRODUCT_RELATED_PRODUCT_CATEGORY ( 'part', '', ( #275 ) ) ;
#222 = AXIS2_PLACEMENT_3D ( 'NONE', #67, #176, #182 ) ;
#223 = DIRECTION ( 'NONE',  ( 1.000000000000000000, -0.000000000000000000, -0.000000000000000000 ) ) ;
#224 = EDGE_CURVE ( 'NONE', #230, #80, #302, .T. ) ;
#225 = SURFACE_STYLE_FILL_AREA ( #55 ) ;
#226 = ORIENTED_EDGE ( 'NONE', *, *, #155, .T. ) ;
#227 = DIRECTION ( 'NONE',  ( 0.000000000000000000, 0.000000000000000000, -1.000000000000000000 ) ) ;
#228 = ORIENTED_EDGE ( 'NONE', *, *, #83, .F. ) ;
#229 = VERTEX_POINT ( 'NONE', #319 ) ;
#230 = VERTEX_POINT ( 'NONE', #296 ) ;
#231 = SHAPE_DEFINITION_REPRESENTATION ( #111, #232 ) ;
#232 = ADVANCED_BREP_SHAPE_REPRESENTATION ( 'dispositif-acquisition-side23', ( #163, #205 ), #186 ) ;
#233 = FACE_BOUND ( 'NONE', #330, .T. ) ;
#234 = ORIENTED_EDGE ( 'NONE', *, *, #323, .T. ) ;
#235 = ORIENTED_EDGE ( 'NONE', *, *, #191, .T. ) ;
#236 = LINE ( 'NONE', #97, #172 ) ;
#237 = APPLICATION_CONTEXT ( 'automotive_design' ) ;
#238 = ORIENTED_EDGE ( 'NONE', *, *, #9, .F. ) ;
#239 = DIRECTION ( 'NONE',  ( -0.000000000000000000, -0.000000000000000000, 1.000000000000000000 ) ) ;
#240 = CARTESIAN_POINT ( 'NONE',  ( 2.000000000000000000, 27.03869047619047805, 39.63392857142857650 ) ) ;
#241 = DIRECTION ( 'NONE',  ( 0.000000000000000000, 0.000000000000000000, -1.000000000000000000 ) ) ;
#242 = FACE_OUTER_BOUND ( 'NONE', #295, .T. ) ;
#243 = DIRECTION ( 'NONE',  ( 0.000000000000000000, 0.000000000000000000, -1.000000000000000000 ) ) ;
#244 = PRODUCT_DEFINITION_FORMATION_WITH_SPECIFIED_SOURCE ( 'ANY', '', #275, .NOT_KNOWN. ) ;
#245 = VECTOR ( 'NONE', #144, 1000.000000000000000 ) ;
#246 = DIRECTION ( 'NONE',  ( 0.000000000000000000, 0.000000000000000000, -1.000000000000000000 ) ) ;
#247 = EDGE_CURVE ( 'NONE', #279, #22, #269, .T. ) ;
#248 = DIRECTION ( 'NONE',  ( -0.000000000000000000, 1.000000000000000000, 2.392722035830078972E-16 ) ) ;
#249 = VERTEX_POINT ( 'NONE', #114 ) ;
#250 = CYLINDRICAL_SURFACE ( 'NONE', #168, 1.000000000000000888 ) ;
#251 = VERTEX_POINT ( 'NONE', #58 ) ;
#252 = FACE_OUTER_BOUND ( 'NONE', #95, .T. ) ;
#253 = EDGE_LOOP ( 'NONE', ( #297, #124, #149, #90 ) ) ;
#254 = PRODUCT_CONTEXT ( 'NONE', #237, 'mechanical' ) ;
#255 = ORIENTED_EDGE ( 'NONE', *, *, #305, .F. ) ;
#256 = DIRECTION ( 'NONE',  ( 0.000000000000000000, 0.000000000000000000, -1.000000000000000000 ) ) ;
#257 = AXIS2_PLACEMENT_3D ( 'NONE', #131, #26, #243 ) ;
#258 = DIRECTION ( 'NONE',  ( 1.000000000000000000, 0.000000000000000000, 0.000000000000000000 ) ) ;
#259 = ADVANCED_FACE ( 'NONE', ( #56 ), #250, .F. ) ;
#260 = CARTESIAN_POINT ( 'NONE',  ( 2.000000000000000000, 27.03869047619047805, -50.36607142857141639 ) ) ;
#261 = VECTOR ( 'NONE', #201, 1000.000000000000000 ) ;
#262 = AXIS2_PLACEMENT_3D ( 'NONE', #264, #28, #190 ) ;
#263 = CYLINDRICAL_SURFACE ( 'NONE', #84, 1.000000000000000888 ) ;
#264 = CARTESIAN_POINT ( 'NONE',  ( 2.000000000000000000, 4.038690476190477163, -35.36607142857142350 ) ) ;
#265 = DIRECTION ( 'NONE',  ( 1.000000000000000000, -0.000000000000000000, -0.000000000000000000 ) ) ;
#266 = CARTESIAN_POINT ( 'NONE',  ( 0.000000000000000000, 4.038690476190477163, 24.63392857142857650 ) ) ;
#267 = EDGE_CURVE ( 'NONE', #120, #43, #194, .T. ) ;
#268 = CYLINDRICAL_SURFACE ( 'NONE', #123, 1.000000000000000888 ) ;
#269 = CIRCLE ( 'NONE', #52, 1.000000000000000888 ) ;
#270 =( NAMED_UNIT ( * ) SI_UNIT ( $, .STERADIAN. ) SOLID_ANGLE_UNIT ( ) );
#271 = EDGE_CURVE ( 'NONE', #94, #303, #36, .T. ) ;
#272 = CARTESIAN_POINT ( 'NONE',  ( 2.000000000000000000, 4.038690476190477163, -35.36607142857142350 ) ) ;
#273 = EDGE_LOOP ( 'NONE', ( #284, #146 ) ) ;
#274 =( LENGTH_UNIT ( ) NAMED_UNIT ( * ) SI_UNIT ( .MILLI., .METRE. ) );
#275 = PRODUCT ( 'dispositif-acquisition-side23', 'dispositif-acquisition-side23', '', ( #254 ) ) ;
#276 = VECTOR ( 'NONE', #248, 1000.000000000000000 ) ;
#277 = ORIENTED_EDGE ( 'NONE', *, *, #310, .T. ) ;
#278 = CARTESIAN_POINT ( 'NONE',  ( 0.000000000000000000, 4.038690476190477163, -35.36607142857142350 ) ) ;
#279 = VERTEX_POINT ( 'NONE', #280 ) ;
#280 = CARTESIAN_POINT ( 'NONE',  ( 0.000000000000000000, 4.038690476190477163, 25.63392857142858006 ) ) ;
#281 = CARTESIAN_POINT ( 'NONE',  ( 2.000000000000000000, 4.038690476190477163, -36.36607142857142350 ) ) ;
#282 = VECTOR ( 'NONE', #153, 1000.000000000000000 ) ;
#283 = PLANE ( 'NONE',  #49 ) ;
#284 = ORIENTED_EDGE ( 'NONE', *, *, #174, .F. ) ;
#285 = LINE ( 'NONE', #44, #75 ) ;
#286 = ADVANCED_FACE ( 'NONE', ( #332 ), #324, .F. ) ;
#287 = ORIENTED_EDGE ( 'NONE', *, *, #70, .T. ) ;
#288 = FACE_BOUND ( 'NONE', #160, .T. ) ;
#289 = DIRECTION ( 'NONE',  ( 0.000000000000000000, 0.000000000000000000, -1.000000000000000000 ) ) ;
#290 = CARTESIAN_POINT ( 'NONE',  ( 2.000000000000000000, 4.038690476190477163, -36.36607142857142350 ) ) ;
#291 = AXIS2_PLACEMENT_3D ( 'NONE', #240, #241, #105 ) ;
#292 = DIRECTION ( 'NONE',  ( 0.000000000000000000, 0.000000000000000000, -1.000000000000000000 ) ) ;
#293 = AXIS2_PLACEMENT_3D ( 'NONE', #306, #258, #19 ) ;
#294 = DIRECTION ( 'NONE',  ( 1.000000000000000000, -0.000000000000000000, -0.000000000000000000 ) ) ;
#295 = EDGE_LOOP ( 'NONE', ( #41, #325, #211, #287 ) ) ;
#296 = CARTESIAN_POINT ( 'NONE',  ( 2.000000000000000000, 4.038690476190477163, -34.36607142857141639 ) ) ;
#297 = ORIENTED_EDGE ( 'NONE', *, *, #155, .F. ) ;
#298 = CARTESIAN_POINT ( 'NONE',  ( 0.000000000000000000, 4.038690476190477163, 24.63392857142857650 ) ) ;
#299 = ORIENTED_EDGE ( 'NONE', *, *, #247, .T. ) ;
#300 =( NAMED_UNIT ( * ) PLANE_ANGLE_UNIT ( ) SI_UNIT ( $, .RADIAN. ) );
#301 = UNCERTAINTY_MEASURE_WITH_UNIT (LENGTH_MEASURE( 1.000000000000000082E-05 ), #274, 'distance_accuracy_value', 'NONE');
#302 = CIRCLE ( 'NONE', #23, 1.000000000000000888 ) ;
#303 = VERTEX_POINT ( 'NONE', #147 ) ;
#304 = LINE ( 'NONE', #13, #133 ) ;
#305 = EDGE_CURVE ( 'NONE', #38, #229, #304, .T. ) ;
#306 = CARTESIAN_POINT ( 'NONE',  ( 0.000000000000000000, 0.000000000000000000, 0.000000000000000000 ) ) ;
#307 =( LENGTH_UNIT ( ) NAMED_UNIT ( * ) SI_UNIT ( .MILLI., .METRE. ) );
#308 = CARTESIAN_POINT ( 'NONE',  ( 2.000000000000000000, 27.03869047619047805, -50.36607142857141639 ) ) ;
#309 = DIRECTION ( 'NONE',  ( -0.000000000000000000, 1.000000000000000000, 2.392722035830078972E-16 ) ) ;
#310 = EDGE_CURVE ( 'NONE', #20, #10, #236, .T. ) ;
#311 = MECHANICAL_DESIGN_GEOMETRIC_PRESENTATION_REPRESENTATION (  '', ( #30 ), #77 ) ;
#312 = LINE ( 'NONE', #164, #207 ) ;
#313 = PLANE ( 'NONE',  #157 ) ;
#314 = EDGE_CURVE ( 'NONE', #10, #303, #285, .T. ) ;
#315 = CARTESIAN_POINT ( 'NONE',  ( 0.000000000000000000, 27.03869047619047805, 39.63392857142857650 ) ) ;
#316 = FACE_BOUND ( 'NONE', #273, .T. ) ;
#317 = DIRECTION ( 'NONE',  ( 1.000000000000000000, -0.000000000000000000, -0.000000000000000000 ) ) ;
#318 = LINE ( 'NONE', #34, #276 ) ;
#319 = CARTESIAN_POINT ( 'NONE',  ( 2.000000000000000000, -30.96130952380952550, -50.36607142857143060 ) ) ;
#320 = ORIENTED_EDGE ( 'NONE', *, *, #79, .F. ) ;
#321 = DIRECTION ( 'NONE',  ( 0.000000000000000000, -1.000000000000000000, 0.000000000000000000 ) ) ;
#322 = DIRECTION ( 'NONE',  ( 1.000000000000000000, -0.000000000000000000, -0.000000000000000000 ) ) ;
#323 = EDGE_CURVE ( 'NONE', #179, #251, #328, .T. ) ;
#324 = CYLINDRICAL_SURFACE ( 'NONE', #222, 1.000000000000000888 ) ;
#325 = ORIENTED_EDGE ( 'NONE', *, *, #305, .T. ) ;
#326 = VECTOR ( 'NONE', #76, 1000.000000000000000 ) ;
#327 = ORIENTED_EDGE ( 'NONE', *, *, #104, .T. ) ;
#328 = LINE ( 'NONE', #333, #214 ) ;
#329 = ADVANCED_FACE ( 'NONE', ( #288, #233, #63 ), #206, .F. ) ;
#330 = EDGE_LOOP ( 'NONE', ( #127, #15 ) ) ;
#331 = ORIENTED_EDGE ( 'NONE', *, *, #224, .F. ) ;
#332 = FACE_OUTER_BOUND ( 'NONE', #71, .T. ) ;
#333 = CARTESIAN_POINT ( 'NONE',  ( 0.000000000000000000, -30.96130952380952550, 39.63392857142857650 ) ) ;
#334 = LINE ( 'NONE', #281, #115 ) ;
#335 = DIRECTION ( 'NONE',  ( 0.000000000000000000, -1.000000000000000000, 0.000000000000000000 ) ) ;
ENDSEC;
END-ISO-10303-21;
