ISO-10303-21;
HEADER;
/* Generated by software containing ST-Developer
 * from STEP Tools, Inc. (www.steptools.com) 
 */

FILE_DESCRIPTION(
/* description */ (''),
/* implementation_level */ '2;1');

FILE_NAME(
/* name */ 'Repre disque v110.step',
/* time_stamp */ '2024-03-30T11:52:49+01:00',
/* author */ (''),
/* organization */ (''),
/* preprocessor_version */ 'ST-DEVELOPER v20',
/* originating_system */ 'Autodesk Translation Framework v12.20.1.177',

/* authorisation */ '');

FILE_SCHEMA (('AUTOMOTIVE_DESIGN { 1 0 10303 214 3 1 1 }'));
ENDSEC;

DATA;
#10=MECHANICAL_DESIGN_GEOMETRIC_PRESENTATION_REPRESENTATION('',(#13),#187);
#11=SHAPE_REPRESENTATION_RELATIONSHIP('SRR','None',#194,#12);
#12=ADVANCED_BREP_SHAPE_REPRESENTATION('',(#14),#186);
#13=STYLED_ITEM('',(#203),#14);
#14=MANIFOLD_SOLID_BREP('Corps56',#103);
#15=PLANE('',#120);
#16=PLANE('',#124);
#17=PLANE('',#125);
#18=PLANE('',#126);
#19=FACE_OUTER_BOUND('',#25,.T.);
#20=FACE_OUTER_BOUND('',#26,.T.);
#21=FACE_OUTER_BOUND('',#27,.T.);
#22=FACE_OUTER_BOUND('',#28,.T.);
#23=FACE_OUTER_BOUND('',#29,.T.);
#24=FACE_OUTER_BOUND('',#30,.T.);
#25=EDGE_LOOP('',(#71,#72,#73,#74));
#26=EDGE_LOOP('',(#75,#76,#77,#78));
#27=EDGE_LOOP('',(#79,#80,#81,#82));
#28=EDGE_LOOP('',(#83,#84,#85,#86));
#29=EDGE_LOOP('',(#87,#88,#89,#90));
#30=EDGE_LOOP('',(#91,#92,#93,#94));
#31=LINE('',#163,#39);
#32=LINE('',#166,#40);
#33=LINE('',#169,#41);
#34=LINE('',#171,#42);
#35=LINE('',#172,#43);
#36=LINE('',#178,#44);
#37=LINE('',#180,#45);
#38=LINE('',#181,#46);
#39=VECTOR('',#133,10.);
#40=VECTOR('',#136,10.);
#41=VECTOR('',#139,10.);
#42=VECTOR('',#140,10.);
#43=VECTOR('',#141,10.);
#44=VECTOR('',#148,10.);
#45=VECTOR('',#151,10.);
#46=VECTOR('',#152,10.);
#47=CIRCLE('',#118,8.1);
#48=CIRCLE('',#119,8.1);
#49=CIRCLE('',#122,10.9342475333469);
#50=CIRCLE('',#123,10.9342475333469);
#51=VERTEX_POINT('',#159);
#52=VERTEX_POINT('',#160);
#53=VERTEX_POINT('',#162);
#54=VERTEX_POINT('',#164);
#55=VERTEX_POINT('',#168);
#56=VERTEX_POINT('',#170);
#57=VERTEX_POINT('',#174);
#58=VERTEX_POINT('',#176);
#59=EDGE_CURVE('',#51,#52,#47,.T.);
#60=EDGE_CURVE('',#51,#53,#31,.T.);
#61=EDGE_CURVE('',#54,#53,#48,.T.);
#62=EDGE_CURVE('',#52,#54,#32,.T.);
#63=EDGE_CURVE('',#52,#55,#33,.T.);
#64=EDGE_CURVE('',#56,#54,#34,.T.);
#65=EDGE_CURVE('',#55,#56,#35,.T.);
#66=EDGE_CURVE('',#57,#55,#49,.T.);
#67=EDGE_CURVE('',#58,#56,#50,.T.);
#68=EDGE_CURVE('',#57,#58,#36,.T.);
#69=EDGE_CURVE('',#57,#51,#37,.T.);
#70=EDGE_CURVE('',#53,#58,#38,.T.);
#71=ORIENTED_EDGE('',*,*,#59,.F.);
#72=ORIENTED_EDGE('',*,*,#60,.T.);
#73=ORIENTED_EDGE('',*,*,#61,.F.);
#74=ORIENTED_EDGE('',*,*,#62,.F.);
#75=ORIENTED_EDGE('',*,*,#63,.F.);
#76=ORIENTED_EDGE('',*,*,#62,.T.);
#77=ORIENTED_EDGE('',*,*,#64,.F.);
#78=ORIENTED_EDGE('',*,*,#65,.F.);
#79=ORIENTED_EDGE('',*,*,#66,.T.);
#80=ORIENTED_EDGE('',*,*,#65,.T.);
#81=ORIENTED_EDGE('',*,*,#67,.F.);
#82=ORIENTED_EDGE('',*,*,#68,.F.);
#83=ORIENTED_EDGE('',*,*,#69,.F.);
#84=ORIENTED_EDGE('',*,*,#68,.T.);
#85=ORIENTED_EDGE('',*,*,#70,.F.);
#86=ORIENTED_EDGE('',*,*,#60,.F.);
#87=ORIENTED_EDGE('',*,*,#70,.T.);
#88=ORIENTED_EDGE('',*,*,#67,.T.);
#89=ORIENTED_EDGE('',*,*,#64,.T.);
#90=ORIENTED_EDGE('',*,*,#61,.T.);
#91=ORIENTED_EDGE('',*,*,#69,.T.);
#92=ORIENTED_EDGE('',*,*,#59,.T.);
#93=ORIENTED_EDGE('',*,*,#63,.T.);
#94=ORIENTED_EDGE('',*,*,#66,.F.);
#95=CYLINDRICAL_SURFACE('',#117,8.1);
#96=CYLINDRICAL_SURFACE('',#121,10.9342475333469);
#97=ADVANCED_FACE('',(#19),#95,.F.);
#98=ADVANCED_FACE('',(#20),#15,.T.);
#99=ADVANCED_FACE('',(#21),#96,.T.);
#100=ADVANCED_FACE('',(#22),#16,.T.);
#101=ADVANCED_FACE('',(#23),#17,.T.);
#102=ADVANCED_FACE('',(#24),#18,.F.);
#103=CLOSED_SHELL('',(#97,#98,#99,#100,#101,#102));
#104=DERIVED_UNIT_ELEMENT(#106,1.);
#105=DERIVED_UNIT_ELEMENT(#189,-3.);
#106=(
MASS_UNIT()
NAMED_UNIT(*)
SI_UNIT(.KILO.,.GRAM.)
);
#107=DERIVED_UNIT((#104,#105));
#108=MEASURE_REPRESENTATION_ITEM('density measure',
POSITIVE_RATIO_MEASURE(7850.),#107);
#109=PROPERTY_DEFINITION_REPRESENTATION(#114,#111);
#110=PROPERTY_DEFINITION_REPRESENTATION(#115,#112);
#111=REPRESENTATION('material name',(#113),#186);
#112=REPRESENTATION('density',(#108),#186);
#113=DESCRIPTIVE_REPRESENTATION_ITEM('Acier','Acier');
#114=PROPERTY_DEFINITION('material property','material name',#196);
#115=PROPERTY_DEFINITION('material property','density of part',#196);
#116=AXIS2_PLACEMENT_3D('',#157,#127,#128);
#117=AXIS2_PLACEMENT_3D('',#158,#129,#130);
#118=AXIS2_PLACEMENT_3D('',#161,#131,#132);
#119=AXIS2_PLACEMENT_3D('',#165,#134,#135);
#120=AXIS2_PLACEMENT_3D('',#167,#137,#138);
#121=AXIS2_PLACEMENT_3D('',#173,#142,#143);
#122=AXIS2_PLACEMENT_3D('',#175,#144,#145);
#123=AXIS2_PLACEMENT_3D('',#177,#146,#147);
#124=AXIS2_PLACEMENT_3D('',#179,#149,#150);
#125=AXIS2_PLACEMENT_3D('',#182,#153,#154);
#126=AXIS2_PLACEMENT_3D('',#183,#155,#156);
#127=DIRECTION('axis',(0.,0.,1.));
#128=DIRECTION('refdir',(1.,0.,0.));
#129=DIRECTION('center_axis',(0.,0.,1.));
#130=DIRECTION('ref_axis',(-0.66492112588091,0.746913580246914,0.));
#131=DIRECTION('center_axis',(0.,0.,1.));
#132=DIRECTION('ref_axis',(-0.66492112588091,0.746913580246914,0.));
#133=DIRECTION('',(0.,0.,1.));
#134=DIRECTION('center_axis',(0.,0.,-1.));
#135=DIRECTION('ref_axis',(-0.66492112588091,0.746913580246914,0.));
#136=DIRECTION('',(0.,0.,1.));
#137=DIRECTION('center_axis',(0.,-1.,0.));
#138=DIRECTION('ref_axis',(1.,0.,0.));
#139=DIRECTION('',(-1.,0.,0.));
#140=DIRECTION('',(1.,0.,0.));
#141=DIRECTION('',(0.,0.,1.));
#142=DIRECTION('center_axis',(0.,0.,1.));
#143=DIRECTION('ref_axis',(-0.832977147680129,0.553307393265875,0.));
#144=DIRECTION('center_axis',(0.,0.,1.));
#145=DIRECTION('ref_axis',(-0.832977147680129,0.553307393265875,0.));
#146=DIRECTION('center_axis',(0.,0.,1.));
#147=DIRECTION('ref_axis',(-0.832977147680129,0.553307393265875,0.));
#148=DIRECTION('',(0.,0.,1.));
#149=DIRECTION('center_axis',(0.,1.,0.));
#150=DIRECTION('ref_axis',(-1.,0.,0.));
#151=DIRECTION('',(1.,0.,0.));
#152=DIRECTION('',(-1.,0.,0.));
#153=DIRECTION('center_axis',(0.,0.,1.));
#154=DIRECTION('ref_axis',(1.,0.,0.));
#155=DIRECTION('center_axis',(0.,0.,1.));
#156=DIRECTION('ref_axis',(1.,0.,0.));
#157=CARTESIAN_POINT('',(0.,0.,0.));
#158=CARTESIAN_POINT('Origin',(112.730004337729,-288.94999858439,0.));
#159=CARTESIAN_POINT('',(107.344143218094,-282.89999858439,0.));
#160=CARTESIAN_POINT('',(107.344143218094,-294.99999858439,0.));
#161=CARTESIAN_POINT('Origin',(112.730004337729,-288.94999858439,0.));
#162=CARTESIAN_POINT('',(107.344143218094,-282.89999858439,11.2));
#163=CARTESIAN_POINT('',(107.344143218094,-282.89999858439,0.));
#164=CARTESIAN_POINT('',(107.344143218094,-294.99999858439,11.2));
#165=CARTESIAN_POINT('Origin',(112.730004337729,-288.94999858439,11.2));
#166=CARTESIAN_POINT('',(107.344143218094,-294.99999858439,0.));
#167=CARTESIAN_POINT('Origin',(103.622026015373,-294.99999858439,0.));
#168=CARTESIAN_POINT('',(103.622026015373,-294.99999858439,0.));
#169=CARTESIAN_POINT('',(107.344143218094,-294.99999858439,0.));
#170=CARTESIAN_POINT('',(103.622026015373,-294.99999858439,11.2));
#171=CARTESIAN_POINT('',(107.344143218094,-294.99999858439,11.2));
#172=CARTESIAN_POINT('',(103.622026015373,-294.99999858439,0.));
#173=CARTESIAN_POINT('Origin',(112.730004337729,-288.94999858439,0.));
#174=CARTESIAN_POINT('',(103.622026015373,-282.89999858439,0.));
#175=CARTESIAN_POINT('Origin',(112.730004337729,-288.94999858439,0.));
#176=CARTESIAN_POINT('',(103.622026015373,-282.89999858439,11.2));
#177=CARTESIAN_POINT('Origin',(112.730004337729,-288.94999858439,11.2));
#178=CARTESIAN_POINT('',(103.622026015373,-282.89999858439,0.));
#179=CARTESIAN_POINT('Origin',(107.344143218094,-282.89999858439,0.));
#180=CARTESIAN_POINT('',(103.364108758555,-282.89999858439,0.));
#181=CARTESIAN_POINT('',(103.364108758555,-282.89999858439,11.2));
#182=CARTESIAN_POINT('Origin',(104.569950011238,-288.94999858439,11.2));
#183=CARTESIAN_POINT('Origin',(104.569950011238,-288.94999858439,0.));
#184=UNCERTAINTY_MEASURE_WITH_UNIT(LENGTH_MEASURE(0.01),#188,
'DISTANCE_ACCURACY_VALUE',
'Maximum model space distance between geometric entities at asserted c
onnectivities');
#185=UNCERTAINTY_MEASURE_WITH_UNIT(LENGTH_MEASURE(0.01),#188,
'DISTANCE_ACCURACY_VALUE',
'Maximum model space distance between geometric entities at asserted c
onnectivities');
#186=(
GEOMETRIC_REPRESENTATION_CONTEXT(3)
GLOBAL_UNCERTAINTY_ASSIGNED_CONTEXT((#184))
GLOBAL_UNIT_ASSIGNED_CONTEXT((#188,#190,#191))
REPRESENTATION_CONTEXT('','3D')
);
#187=(
GEOMETRIC_REPRESENTATION_CONTEXT(3)
GLOBAL_UNCERTAINTY_ASSIGNED_CONTEXT((#185))
GLOBAL_UNIT_ASSIGNED_CONTEXT((#188,#190,#191))
REPRESENTATION_CONTEXT('','3D')
);
#188=(
LENGTH_UNIT()
NAMED_UNIT(*)
SI_UNIT(.MILLI.,.METRE.)
);
#189=(
LENGTH_UNIT()
NAMED_UNIT(*)
SI_UNIT($,.METRE.)
);
#190=(
NAMED_UNIT(*)
PLANE_ANGLE_UNIT()
SI_UNIT($,.RADIAN.)
);
#191=(
NAMED_UNIT(*)
SI_UNIT($,.STERADIAN.)
SOLID_ANGLE_UNIT()
);
#192=SHAPE_DEFINITION_REPRESENTATION(#193,#194);
#193=PRODUCT_DEFINITION_SHAPE('',$,#196);
#194=SHAPE_REPRESENTATION('',(#116),#186);
#195=PRODUCT_DEFINITION_CONTEXT('part definition',#200,'design');
#196=PRODUCT_DEFINITION('Rep\X\E8re disque','Rep\X\E8re disque v110',#197,
#195);
#197=PRODUCT_DEFINITION_FORMATION('',$,#202);
#198=PRODUCT_RELATED_PRODUCT_CATEGORY('Rep\X\E8re disque v110',
'Rep\X\E8re disque v110',(#202));
#199=APPLICATION_PROTOCOL_DEFINITION('international standard',
'automotive_design',2009,#200);
#200=APPLICATION_CONTEXT(
'Core Data for Automotive Mechanical Design Process');
#201=PRODUCT_CONTEXT('part definition',#200,'mechanical');
#202=PRODUCT('Rep\X\E8re disque','Rep\X\E8re disque v110',$,(#201));
#203=PRESENTATION_STYLE_ASSIGNMENT((#204));
#204=SURFACE_STYLE_USAGE(.BOTH.,#205);
#205=SURFACE_SIDE_STYLE('',(#206));
#206=SURFACE_STYLE_FILL_AREA(#207);
#207=FILL_AREA_STYLE('Acier - Satin\X\E9',(#208));
#208=FILL_AREA_STYLE_COLOUR('Acier - Satin\X\E9',#209);
#209=COLOUR_RGB('Acier - Satin\X\E9',0.627450980392157,0.627450980392157,
0.627450980392157);
ENDSEC;
END-ISO-10303-21;
