ISO-10303-21;
HEADER;

/* File generated by HOOPS Exchange Version 11.0.30 */

FILE_DESCRIPTION(('HOOPS Exchange Step'),'2;1');

FILE_NAME('E:\\usineur\\CHAPE VELO.step',
'2024-03-21T16:44:51+01:00',
('SP'),
('Unknown organisation'),
'HOOPS Exchange 2018.0',
'HOOPS Exchange',
'Unknown authorisation');

FILE_SCHEMA( ('AP203_CONFIGURATION_CONTROLLED_3D_DESIGN_OF_MECHANICAL_PARTS_AND_ASSEMBLIES_MIM_LF') );

ENDSEC;

DATA;
#3=(NAMED_UNIT(*)PLANE_ANGLE_UNIT()SI_UNIT($,.RADIAN.));
#4=PLANE_ANGLE_MEASURE_WITH_UNIT(PLANE_ANGLE_MEASURE(0.0174532925),#3);
#5=(CONVERSION_BASED_UNIT('DEGREE',#4)NAMED_UNIT(#6)PLANE_ANGLE_UNIT());
#6=DIMENSIONAL_EXPONENTS(0.,0.,0.,0.,0.,0.,0.);
#7=(NAMED_UNIT(*)SI_UNIT($,.STERADIAN.)SOLID_ANGLE_UNIT());
#8=(LENGTH_UNIT()NAMED_UNIT(*)SI_UNIT(.MILLI.,.METRE.));
#9=UNCERTAINTY_MEASURE_WITH_UNIT(LENGTH_MEASURE(1.000000E-05),#8,'DISTANCE_ACCURACY_VALUE','Maximum Tolerance applied to model');
#10=(GEOMETRIC_REPRESENTATION_CONTEXT(3)GLOBAL_UNCERTAINTY_ASSIGNED_CONTEXT((#9))GLOBAL_UNIT_ASSIGNED_CONTEXT((#8,#5,#7))REPRESENTATION_CONTEXT('','C:\\Users\\SP\\AppData\\Local\\Temp\\Esprit.020.000\\RDR1-2.x_t'));
#12=CARTESIAN_POINT('',(0.0,0.0,0.0));
#13=DIRECTION('',(0.0,0.0,1.0));
#14=DIRECTION('',(1.0,0.0,0.0));
#15=AXIS2_PLACEMENT_3D('',#12,#13,#14);
#27=CARTESIAN_POINT('',(0.0,-9.5,0.0));
#28=DIRECTION('',(-1.0,0.0,0.0));
#29=DIRECTION('',(0.0,0.0,-1.0));
#30=AXIS2_PLACEMENT_3D('',#27,#28,#29);
#31=PLANE('',#30);
#32=CARTESIAN_POINT('',(0.0,-9.5,-21.0));
#33=VERTEX_POINT('',#32);
#34=CARTESIAN_POINT('',(0.0,-6.5,-21.0));
#35=VERTEX_POINT('',#34);
#36=CARTESIAN_POINT('',(0.0,-9.5,-21.0));
#37=DIRECTION('',(0.0,1.0,0.0));
#38=VECTOR('',#37,3.0);
#39=LINE('',#36,#38);
#40=EDGE_CURVE('',#33,#35,#39,.T.);
#41=ORIENTED_EDGE('',*,*,#40,.F.);
#42=CARTESIAN_POINT('',(0.0,-9.5,-27.0));
#43=VERTEX_POINT('',#42);
#44=CARTESIAN_POINT('',(0.0,-9.5,-21.0));
#45=DIRECTION('',(0.0,0.0,-1.0));
#46=VECTOR('',#45,6.0);
#47=LINE('',#44,#46);
#48=EDGE_CURVE('',#33,#43,#47,.T.);
#49=ORIENTED_EDGE('',*,*,#48,.T.);
#50=CARTESIAN_POINT('',(0.0,-6.5,-27.0));
#51=VERTEX_POINT('',#50);
#52=CARTESIAN_POINT('',(0.0,-9.5,-27.0));
#53=DIRECTION('',(0.0,1.0,0.0));
#54=VECTOR('',#53,3.0);
#55=LINE('',#52,#54);
#56=EDGE_CURVE('',#43,#51,#55,.T.);
#57=ORIENTED_EDGE('',*,*,#56,.T.);
#58=CARTESIAN_POINT('',(0.0,-6.5,-21.0));
#59=DIRECTION('',(0.0,0.0,-1.0));
#60=VECTOR('',#59,6.0);
#61=LINE('',#58,#60);
#62=EDGE_CURVE('',#35,#51,#61,.T.);
#63=ORIENTED_EDGE('',*,*,#62,.F.);
#64=EDGE_LOOP('',(#41,#49,#57,#63));
#65=FACE_BOUND('',#64,.T.);
#66=ADVANCED_FACE('',(#65),#31,.F.);
#67=CARTESIAN_POINT('',(0.0,-9.5,0.0));
#68=DIRECTION('',(-1.0,0.0,0.0));
#69=DIRECTION('',(0.0,0.0,-1.0));
#70=AXIS2_PLACEMENT_3D('',#67,#68,#69);
#71=PLANE('',#70);
#72=CARTESIAN_POINT('',(0.0,6.5,-21.0));
#73=VERTEX_POINT('',#72);
#74=CARTESIAN_POINT('',(0.0,9.5,-21.0));
#75=VERTEX_POINT('',#74);
#76=CARTESIAN_POINT('',(0.0,6.5,-21.0));
#77=DIRECTION('',(0.0,1.0,0.0));
#78=VECTOR('',#77,3.0);
#79=LINE('',#76,#78);
#80=EDGE_CURVE('',#73,#75,#79,.T.);
#81=ORIENTED_EDGE('',*,*,#80,.F.);
#82=CARTESIAN_POINT('',(0.0,6.5,-27.0));
#83=VERTEX_POINT('',#82);
#84=CARTESIAN_POINT('',(0.0,6.5,-21.0));
#85=DIRECTION('',(0.0,0.0,-1.0));
#86=VECTOR('',#85,6.0);
#87=LINE('',#84,#86);
#88=EDGE_CURVE('',#73,#83,#87,.T.);
#89=ORIENTED_EDGE('',*,*,#88,.T.);
#90=CARTESIAN_POINT('',(0.0,9.5,-27.0));
#91=VERTEX_POINT('',#90);
#92=CARTESIAN_POINT('',(0.0,6.5,-27.0));
#93=DIRECTION('',(0.0,1.0,0.0));
#94=VECTOR('',#93,3.0);
#95=LINE('',#92,#94);
#96=EDGE_CURVE('',#83,#91,#95,.T.);
#97=ORIENTED_EDGE('',*,*,#96,.T.);
#98=CARTESIAN_POINT('',(0.0,9.5,-21.0));
#99=DIRECTION('',(0.0,0.0,-1.0));
#100=VECTOR('',#99,6.0);
#101=LINE('',#98,#100);
#102=EDGE_CURVE('',#75,#91,#101,.T.);
#103=ORIENTED_EDGE('',*,*,#102,.F.);
#104=EDGE_LOOP('',(#81,#89,#97,#103));
#105=FACE_BOUND('',#104,.T.);
#106=ADVANCED_FACE('',(#105),#71,.F.);
#107=CARTESIAN_POINT('',(0.0,0.0,0.0));
#108=DIRECTION('',(0.0,0.0,1.0));
#109=DIRECTION('',(0.0,1.0,0.0));
#110=AXIS2_PLACEMENT_3D('',#107,#108,#109);
#111=PLANE('',#110);
#112=CARTESIAN_POINT('',(-14.5,5.0,0.0));
#113=VERTEX_POINT('',#112);
#114=CARTESIAN_POINT('',(-14.5,-5.0,0.0));
#115=VERTEX_POINT('',#114);
#116=CARTESIAN_POINT('',(-14.5,0.0,0.0));
#117=DIRECTION('',(0.0,-0.0,1.0));
#118=DIRECTION('',(0.0,1.0,0.0));
#119=AXIS2_PLACEMENT_3D('',#116,#117,#118);
#120=CIRCLE('',#119,5.0);
#121=EDGE_CURVE('',#113,#115,#120,.T.);
#122=ORIENTED_EDGE('',*,*,#121,.T.);
#123=CARTESIAN_POINT('',(-14.5,0.0,0.0));
#124=DIRECTION('',(0.0,-0.0,1.0));
#125=DIRECTION('',(0.0,1.0,0.0));
#126=AXIS2_PLACEMENT_3D('',#123,#124,#125);
#127=CIRCLE('',#126,5.0);
#128=EDGE_CURVE('',#115,#113,#127,.T.);
#129=ORIENTED_EDGE('',*,*,#128,.T.);
#130=EDGE_LOOP('',(#122,#129));
#131=FACE_BOUND('',#130,.T.);
#132=CARTESIAN_POINT('',(-14.5,-2.5,0.0));
#133=VERTEX_POINT('',#132);
#134=CARTESIAN_POINT('',(-14.5,0.0,0.0));
#135=DIRECTION('',(0.0,0.0,-1.0));
#136=DIRECTION('',(0.0,-1.0,0.0));
#137=AXIS2_PLACEMENT_3D('',#134,#135,#136);
#138=CIRCLE('',#137,2.5);
#139=EDGE_CURVE('',#133,#133,#138,.T.);
#140=ORIENTED_EDGE('',*,*,#139,.T.);
#141=EDGE_LOOP('',(#140));
#142=FACE_BOUND('',#141,.T.);
#143=ADVANCED_FACE('',(#131,#142),#111,.T.);
#144=CARTESIAN_POINT('',(0.0,9.5,0.0));
#145=DIRECTION('',(0.0,-1.0,0.0));
#146=DIRECTION('',(0.0,0.0,1.0));
#147=AXIS2_PLACEMENT_3D('',#144,#145,#146);
#148=PLANE('',#147);
#149=CARTESIAN_POINT('',(-14.5,9.5,-27.0));
#150=VERTEX_POINT('',#149);
#151=CARTESIAN_POINT('',(0.0,9.5,-27.0));
#152=DIRECTION('',(-1.0,0.0,0.0));
#153=VECTOR('',#152,14.5);
#154=LINE('',#151,#153);
#155=EDGE_CURVE('',#91,#150,#154,.T.);
#156=ORIENTED_EDGE('',*,*,#155,.T.);
#157=CARTESIAN_POINT('',(-14.5,9.5,-21.0));
#158=VERTEX_POINT('',#157);
#159=CARTESIAN_POINT('',(-14.5,9.5,-27.0));
#160=DIRECTION('',(-0.0,-0.0,1.0));
#161=VECTOR('',#160,6.0);
#162=LINE('',#159,#161);
#163=EDGE_CURVE('',#150,#158,#162,.T.);
#164=ORIENTED_EDGE('',*,*,#163,.T.);
#165=CARTESIAN_POINT('',(0.0,9.5,-21.0));
#166=DIRECTION('',(-1.0,0.0,0.0));
#167=VECTOR('',#166,14.5);
#168=LINE('',#165,#167);
#169=EDGE_CURVE('',#75,#158,#168,.T.);
#170=ORIENTED_EDGE('',*,*,#169,.F.);
#171=ORIENTED_EDGE('',*,*,#102,.T.);
#172=EDGE_LOOP('',(#156,#164,#170,#171));
#173=FACE_BOUND('',#172,.T.);
#174=ADVANCED_FACE('',(#173),#148,.F.);
#175=CARTESIAN_POINT('',(-24.0,-9.5,0.0));
#176=DIRECTION('',(0.0,1.0,0.0));
#177=DIRECTION('',(0.0,0.0,-1.0));
#178=AXIS2_PLACEMENT_3D('',#175,#176,#177);
#179=PLANE('',#178);
#180=CARTESIAN_POINT('',(-14.5,-9.5,-21.0));
#181=VERTEX_POINT('',#180);
#182=CARTESIAN_POINT('',(-14.5,-9.5,-21.0));
#183=DIRECTION('',(1.0,0.0,-0.0));
#184=VECTOR('',#183,14.5);
#185=LINE('',#182,#184);
#186=EDGE_CURVE('',#181,#33,#185,.T.);
#187=ORIENTED_EDGE('',*,*,#186,.F.);
#188=CARTESIAN_POINT('',(-14.5,-9.5,-27.0));
#189=VERTEX_POINT('',#188);
#190=CARTESIAN_POINT('',(-14.5,-9.5,-21.0));
#191=DIRECTION('',(0.0,0.0,-1.0));
#192=VECTOR('',#191,6.0);
#193=LINE('',#190,#192);
#194=EDGE_CURVE('',#181,#189,#193,.T.);
#195=ORIENTED_EDGE('',*,*,#194,.T.);
#196=CARTESIAN_POINT('',(-14.5,-9.5,-27.0));
#197=DIRECTION('',(1.0,0.0,-0.0));
#198=VECTOR('',#197,14.5);
#199=LINE('',#196,#198);
#200=EDGE_CURVE('',#189,#43,#199,.T.);
#201=ORIENTED_EDGE('',*,*,#200,.T.);
#202=ORIENTED_EDGE('',*,*,#48,.F.);
#203=EDGE_LOOP('',(#187,#195,#201,#202));
#204=FACE_BOUND('',#203,.T.);
#205=ADVANCED_FACE('',(#204),#179,.F.);
#206=CARTESIAN_POINT('',(-8.5,5.0,0.0));
#207=DIRECTION('',(0.0,-1.0,0.0));
#208=DIRECTION('',(0.0,0.0,1.0));
#209=AXIS2_PLACEMENT_3D('',#206,#207,#208);
#210=PLANE('',#209);
#211=CARTESIAN_POINT('',(-8.5,5.0,-21.0));
#212=VERTEX_POINT('',#211);
#213=CARTESIAN_POINT('',(-8.5,5.0,-27.0));
#214=VERTEX_POINT('',#213);
#215=CARTESIAN_POINT('',(-8.5,5.0,-21.0));
#216=DIRECTION('',(0.0,0.0,-1.0));
#217=VECTOR('',#216,6.0);
#218=LINE('',#215,#217);
#219=EDGE_CURVE('',#212,#214,#218,.T.);
#220=ORIENTED_EDGE('',*,*,#219,.F.);
#221=CARTESIAN_POINT('',(-11.1833752,5.0,-21.0));
#222=VERTEX_POINT('',#221);
#223=CARTESIAN_POINT('',(-8.5,5.0,-21.0));
#224=DIRECTION('',(-1.0,0.0,0.0));
#225=VECTOR('',#224,2.68337521);
#226=LINE('',#223,#225);
#227=EDGE_CURVE('',#212,#222,#226,.T.);
#228=ORIENTED_EDGE('',*,*,#227,.T.);
#229=CARTESIAN_POINT('',(-14.5,5.0,-21.0));
#230=VERTEX_POINT('',#229);
#231=CARTESIAN_POINT('',(-14.5,5.0,-21.0));
#232=DIRECTION('',(1.0,0.0,-0.0));
#233=VECTOR('',#232,3.31662479);
#234=LINE('',#231,#233);
#235=EDGE_CURVE('',#230,#222,#234,.T.);
#236=ORIENTED_EDGE('',*,*,#235,.F.);
#237=CARTESIAN_POINT('',(-14.5,5.0,-27.0));
#238=VERTEX_POINT('',#237);
#239=CARTESIAN_POINT('',(-14.5,5.0,-21.0));
#240=DIRECTION('',(0.0,0.0,-1.0));
#241=VECTOR('',#240,6.0);
#242=LINE('',#239,#241);
#243=EDGE_CURVE('',#230,#238,#242,.T.);
#244=ORIENTED_EDGE('',*,*,#243,.T.);
#245=CARTESIAN_POINT('',(-8.5,5.0,-27.0));
#246=DIRECTION('',(-1.0,0.0,0.0));
#247=VECTOR('',#246,6.0);
#248=LINE('',#245,#247);
#249=EDGE_CURVE('',#214,#238,#248,.T.);
#250=ORIENTED_EDGE('',*,*,#249,.F.);
#251=EDGE_LOOP('',(#220,#228,#236,#244,#250));
#252=FACE_BOUND('',#251,.T.);
#253=ADVANCED_FACE('',(#252),#210,.T.);
#254=CARTESIAN_POINT('',(-11.1833752,-5.0,0.0));
#255=DIRECTION('',(0.0,1.0,0.0));
#256=DIRECTION('',(0.0,0.0,-1.0));
#257=AXIS2_PLACEMENT_3D('',#254,#255,#256);
#258=PLANE('',#257);
#259=CARTESIAN_POINT('',(-11.1833752,-5.0,-21.0));
#260=VERTEX_POINT('',#259);
#261=CARTESIAN_POINT('',(-14.5,-5.0,-21.0));
#262=VERTEX_POINT('',#261);
#263=CARTESIAN_POINT('',(-11.1833752,-5.0,-21.0));
#264=DIRECTION('',(-1.0,0.0,0.0));
#265=VECTOR('',#264,3.31662479);
#266=LINE('',#263,#265);
#267=EDGE_CURVE('',#260,#262,#266,.T.);
#268=ORIENTED_EDGE('',*,*,#267,.F.);
#269=CARTESIAN_POINT('',(-8.5,-5.0,-21.0));
#270=VERTEX_POINT('',#269);
#271=CARTESIAN_POINT('',(-11.1833752,-5.0,-21.0));
#272=DIRECTION('',(1.0,0.0,-0.0));
#273=VECTOR('',#272,2.68337521);
#274=LINE('',#271,#273);
#275=EDGE_CURVE('',#260,#270,#274,.T.);
#276=ORIENTED_EDGE('',*,*,#275,.T.);
#277=CARTESIAN_POINT('',(-8.5,-5.0,-27.0));
#278=VERTEX_POINT('',#277);
#279=CARTESIAN_POINT('',(-8.5,-5.0,-21.0));
#280=DIRECTION('',(0.0,0.0,-1.0));
#281=VECTOR('',#280,6.0);
#282=LINE('',#279,#281);
#283=EDGE_CURVE('',#270,#278,#282,.T.);
#284=ORIENTED_EDGE('',*,*,#283,.T.);
#285=CARTESIAN_POINT('',(-14.5,-5.0,-27.0));
#286=VERTEX_POINT('',#285);
#287=CARTESIAN_POINT('',(-14.5,-5.0,-27.0));
#288=DIRECTION('',(1.0,0.0,-0.0));
#289=VECTOR('',#288,6.0);
#290=LINE('',#287,#289);
#291=EDGE_CURVE('',#286,#278,#290,.T.);
#292=ORIENTED_EDGE('',*,*,#291,.F.);
#293=CARTESIAN_POINT('',(-14.5,-5.0,-21.0));
#294=DIRECTION('',(0.0,0.0,-1.0));
#295=VECTOR('',#294,6.0);
#296=LINE('',#293,#295);
#297=EDGE_CURVE('',#262,#286,#296,.T.);
#298=ORIENTED_EDGE('',*,*,#297,.F.);
#299=EDGE_LOOP('',(#268,#276,#284,#292,#298));
#300=FACE_BOUND('',#299,.T.);
#301=ADVANCED_FACE('',(#300),#258,.T.);
#302=CARTESIAN_POINT('',(-8.5,-5.0,0.0));
#303=DIRECTION('',(0.173785334,0.984783559,0.0));
#304=DIRECTION('',(0.984783559,-0.173785334,0.0));
#305=AXIS2_PLACEMENT_3D('',#302,#303,#304);
#306=PLANE('',#305);
#307=ORIENTED_EDGE('',*,*,#283,.F.);
#308=CARTESIAN_POINT('',(-8.5,-5.0,-21.0));
#309=DIRECTION('',(0.984783559,-0.173785334,0.0));
#310=VECTOR('',#309,8.63133825);
#311=LINE('',#308,#310);
#312=EDGE_CURVE('',#270,#35,#311,.T.);
#313=ORIENTED_EDGE('',*,*,#312,.T.);
#314=ORIENTED_EDGE('',*,*,#62,.T.);
#315=CARTESIAN_POINT('',(-8.5,-5.0,-27.0));
#316=DIRECTION('',(0.984783559,-0.173785334,0.0));
#317=VECTOR('',#316,8.63133825);
#318=LINE('',#315,#317);
#319=EDGE_CURVE('',#278,#51,#318,.T.);
#320=ORIENTED_EDGE('',*,*,#319,.F.);
#321=EDGE_LOOP('',(#307,#313,#314,#320));
#322=FACE_BOUND('',#321,.T.);
#323=ADVANCED_FACE('',(#322),#306,.T.);
#324=CARTESIAN_POINT('',(0.0,6.5,0.0));
#325=DIRECTION('',(0.173785334,-0.984783559,0.0));
#326=DIRECTION('',(-0.984783559,-0.173785334,0.0));
#327=AXIS2_PLACEMENT_3D('',#324,#325,#326);
#328=PLANE('',#327);
#329=ORIENTED_EDGE('',*,*,#88,.F.);
#330=CARTESIAN_POINT('',(0.0,6.5,-21.0));
#331=DIRECTION('',(-0.984783559,-0.173785334,0.0));
#332=VECTOR('',#331,8.63133825);
#333=LINE('',#330,#332);
#334=EDGE_CURVE('',#73,#212,#333,.T.);
#335=ORIENTED_EDGE('',*,*,#334,.T.);
#336=ORIENTED_EDGE('',*,*,#219,.T.);
#337=CARTESIAN_POINT('',(0.0,6.5,-27.0));
#338=DIRECTION('',(-0.984783559,-0.173785334,0.0));
#339=VECTOR('',#338,8.63133825);
#340=LINE('',#337,#339);
#341=EDGE_CURVE('',#83,#214,#340,.T.);
#342=ORIENTED_EDGE('',*,*,#341,.F.);
#343=EDGE_LOOP('',(#329,#335,#336,#342));
#344=FACE_BOUND('',#343,.T.);
#345=ADVANCED_FACE('',(#344),#328,.T.);
#346=CARTESIAN_POINT('',(-14.5,0.0,0.0));
#347=DIRECTION('',(0.0,0.0,-1.0));
#348=DIRECTION('',(0.0,-1.0,0.0));
#349=AXIS2_PLACEMENT_3D('',#346,#347,#348);
#350=CYLINDRICAL_SURFACE('',#349,6.0);
#351=CARTESIAN_POINT('',(-14.5,-6.0,-21.0));
#352=VERTEX_POINT('',#351);
#353=CARTESIAN_POINT('',(-14.5,-6.0,-1.0));
#354=VERTEX_POINT('',#353);
#355=CARTESIAN_POINT('',(-14.5,-6.0,-21.0));
#356=DIRECTION('',(-0.0,-0.0,1.0));
#357=VECTOR('',#356,20.0);
#358=LINE('',#355,#357);
#359=EDGE_CURVE('',#352,#354,#358,.T.);
#360=ORIENTED_EDGE('',*,*,#359,.T.);
#361=CARTESIAN_POINT('',(-14.5,6.0,-1.0));
#362=VERTEX_POINT('',#361);
#363=CARTESIAN_POINT('',(-14.5,0.0,-1.0));
#364=DIRECTION('',(-0.0,0.0,-1.0));
#365=DIRECTION('',(0.0,1.0,0.0));
#366=AXIS2_PLACEMENT_3D('',#363,#364,#365);
#367=CIRCLE('',#366,6.0);
#368=EDGE_CURVE('',#354,#362,#367,.T.);
#369=ORIENTED_EDGE('',*,*,#368,.T.);
#370=CARTESIAN_POINT('',(-14.5,0.0,-1.0));
#371=DIRECTION('',(-0.0,0.0,-1.0));
#372=DIRECTION('',(0.0,1.0,0.0));
#373=AXIS2_PLACEMENT_3D('',#370,#371,#372);
#374=CIRCLE('',#373,6.0);
#375=EDGE_CURVE('',#362,#354,#374,.T.);
#376=ORIENTED_EDGE('',*,*,#375,.T.);
#377=ORIENTED_EDGE('',*,*,#359,.F.);
#378=CARTESIAN_POINT('',(-14.5,0.0,-21.0));
#379=DIRECTION('',(0.0,-0.0,1.0));
#380=DIRECTION('',(0.0,1.0,0.0));
#381=AXIS2_PLACEMENT_3D('',#378,#379,#380);
#382=CIRCLE('',#381,6.0);
#383=EDGE_CURVE('',#352,#260,#382,.T.);
#384=ORIENTED_EDGE('',*,*,#383,.T.);
#385=CARTESIAN_POINT('',(-14.5,0.0,-21.0));
#386=DIRECTION('',(-0.0,-0.0,1.0));
#387=DIRECTION('',(0.0,-1.0,0.0));
#388=AXIS2_PLACEMENT_3D('',#385,#386,#387);
#389=CIRCLE('',#388,6.0);
#390=EDGE_CURVE('',#260,#222,#389,.T.);
#391=ORIENTED_EDGE('',*,*,#390,.T.);
#392=CARTESIAN_POINT('',(-14.5,0.0,-21.0));
#393=DIRECTION('',(0.0,-0.0,1.0));
#394=DIRECTION('',(0.0,1.0,0.0));
#395=AXIS2_PLACEMENT_3D('',#392,#393,#394);
#396=CIRCLE('',#395,6.0);
#397=EDGE_CURVE('',#222,#352,#396,.T.);
#398=ORIENTED_EDGE('',*,*,#397,.T.);
#399=EDGE_LOOP('',(#360,#369,#376,#377,#384,#391,#398));
#400=FACE_BOUND('',#399,.T.);
#401=ADVANCED_FACE('',(#400),#350,.T.);
#402=CARTESIAN_POINT('',(-14.5,0.0,-20.0));
#403=DIRECTION('',(0.0,0.0,-1.0));
#404=DIRECTION('',(0.0,-1.0,0.0));
#405=AXIS2_PLACEMENT_3D('',#402,#403,#404);
#406=CYLINDRICAL_SURFACE('',#405,5.0);
#407=CARTESIAN_POINT('',(-14.5,-5.0,-20.0));
#408=VERTEX_POINT('',#407);
#409=CARTESIAN_POINT('',(-14.5,-5.0,-21.0));
#410=DIRECTION('',(-0.0,-0.0,1.0));
#411=VECTOR('',#410,1.0);
#412=LINE('',#409,#411);
#413=EDGE_CURVE('',#262,#408,#412,.T.);
#414=ORIENTED_EDGE('',*,*,#413,.F.);
#415=ORIENTED_EDGE('',*,*,#297,.T.);
#416=CARTESIAN_POINT('',(-14.5,0.0,-27.0));
#417=DIRECTION('',(0.0,0.0,-1.0));
#418=DIRECTION('',(0.0,-1.0,0.0));
#419=AXIS2_PLACEMENT_3D('',#416,#417,#418);
#420=CIRCLE('',#419,5.0);
#421=EDGE_CURVE('',#286,#238,#420,.T.);
#422=ORIENTED_EDGE('',*,*,#421,.T.);
#423=ORIENTED_EDGE('',*,*,#243,.F.);
#424=CARTESIAN_POINT('',(-14.5,0.0,-21.0));
#425=DIRECTION('',(-0.0,-0.0,1.0));
#426=DIRECTION('',(0.0,-1.0,0.0));
#427=AXIS2_PLACEMENT_3D('',#424,#425,#426);
#428=CIRCLE('',#427,5.0);
#429=EDGE_CURVE('',#262,#230,#428,.T.);
#430=ORIENTED_EDGE('',*,*,#429,.F.);
#431=ORIENTED_EDGE('',*,*,#413,.T.);
#432=CARTESIAN_POINT('',(-14.5,0.0,-20.0));
#433=DIRECTION('',(0.0,0.0,-1.0));
#434=DIRECTION('',(0.0,-1.0,0.0));
#435=AXIS2_PLACEMENT_3D('',#432,#433,#434);
#436=CIRCLE('',#435,5.0);
#437=EDGE_CURVE('',#408,#408,#436,.T.);
#438=ORIENTED_EDGE('',*,*,#437,.F.);
#439=EDGE_LOOP('',(#414,#415,#422,#423,#430,#431,#438));
#440=FACE_BOUND('',#439,.T.);
#441=ADVANCED_FACE('',(#440),#406,.F.);
#442=CARTESIAN_POINT('',(-14.5,0.0,0.0));
#443=DIRECTION('',(0.0,0.0,-1.0));
#444=DIRECTION('',(0.0,-1.0,0.0));
#445=AXIS2_PLACEMENT_3D('',#442,#443,#444);
#446=CYLINDRICAL_SURFACE('',#445,2.5);
#447=CARTESIAN_POINT('',(-14.5,-2.5,-20.0));
#448=VERTEX_POINT('',#447);
#449=CARTESIAN_POINT('',(-14.5,-2.5,-20.0));
#450=DIRECTION('',(-0.0,-0.0,1.0));
#451=VECTOR('',#450,20.0);
#452=LINE('',#449,#451);
#453=EDGE_CURVE('',#448,#133,#452,.T.);
#454=ORIENTED_EDGE('',*,*,#453,.F.);
#455=CARTESIAN_POINT('',(-14.5,0.0,-20.0));
#456=DIRECTION('',(-0.0,-0.0,1.0));
#457=DIRECTION('',(0.0,-1.0,0.0));
#458=AXIS2_PLACEMENT_3D('',#455,#456,#457);
#459=CIRCLE('',#458,2.5);
#460=EDGE_CURVE('',#448,#448,#459,.T.);
#461=ORIENTED_EDGE('',*,*,#460,.F.);
#462=ORIENTED_EDGE('',*,*,#453,.T.);
#463=ORIENTED_EDGE('',*,*,#139,.F.);
#464=EDGE_LOOP('',(#454,#461,#462,#463));
#465=FACE_BOUND('',#464,.T.);
#466=ADVANCED_FACE('',(#465),#446,.F.);
#467=CARTESIAN_POINT('',(0.0,0.0,-27.0));
#468=DIRECTION('',(0.0,0.0,1.0));
#469=DIRECTION('',(0.0,1.0,0.0));
#470=AXIS2_PLACEMENT_3D('',#467,#468,#469);
#471=PLANE('',#470);
#472=CARTESIAN_POINT('',(-24.0,0.0,-27.0));
#473=VERTEX_POINT('',#472);
#474=CARTESIAN_POINT('',(-14.5,0.0,-27.0));
#475=DIRECTION('',(-0.0,0.0,-1.0));
#476=DIRECTION('',(0.0,1.0,0.0));
#477=AXIS2_PLACEMENT_3D('',#474,#475,#476);
#478=CIRCLE('',#477,9.5);
#479=EDGE_CURVE('',#189,#473,#478,.T.);
#480=ORIENTED_EDGE('',*,*,#479,.T.);
#481=CARTESIAN_POINT('',(-14.5,0.0,-27.0));
#482=DIRECTION('',(-0.0,0.0,-1.0));
#483=DIRECTION('',(0.0,1.0,0.0));
#484=AXIS2_PLACEMENT_3D('',#481,#482,#483);
#485=CIRCLE('',#484,9.5);
#486=EDGE_CURVE('',#473,#150,#485,.T.);
#487=ORIENTED_EDGE('',*,*,#486,.T.);
#488=ORIENTED_EDGE('',*,*,#155,.F.);
#489=ORIENTED_EDGE('',*,*,#96,.F.);
#490=ORIENTED_EDGE('',*,*,#341,.T.);
#491=ORIENTED_EDGE('',*,*,#249,.T.);
#492=ORIENTED_EDGE('',*,*,#421,.F.);
#493=ORIENTED_EDGE('',*,*,#291,.T.);
#494=ORIENTED_EDGE('',*,*,#319,.T.);
#495=ORIENTED_EDGE('',*,*,#56,.F.);
#496=ORIENTED_EDGE('',*,*,#200,.F.);
#497=EDGE_LOOP('',(#480,#487,#488,#489,#490,#491,#492,#493,#494,#495,#496));
#498=FACE_BOUND('',#497,.T.);
#499=ADVANCED_FACE('',(#498),#471,.F.);
#500=CARTESIAN_POINT('',(-14.5,0.0,-20.0));
#501=DIRECTION('',(0.0,0.0,-1.0));
#502=DIRECTION('',(0.0,-1.0,0.0));
#503=AXIS2_PLACEMENT_3D('',#500,#501,#502);
#504=PLANE('',#503);
#505=ORIENTED_EDGE('',*,*,#437,.T.);
#506=EDGE_LOOP('',(#505));
#507=FACE_BOUND('',#506,.T.);
#508=ORIENTED_EDGE('',*,*,#460,.T.);
#509=EDGE_LOOP('',(#508));
#510=FACE_BOUND('',#509,.T.);
#511=ADVANCED_FACE('',(#507,#510),#504,.T.);
#512=CARTESIAN_POINT('',(-14.5,0.0,-21.0));
#513=DIRECTION('',(0.0,0.0,-1.0));
#514=DIRECTION('',(0.0,-1.0,0.0));
#515=AXIS2_PLACEMENT_3D('',#512,#513,#514);
#516=PLANE('',#515);
#517=ORIENTED_EDGE('',*,*,#267,.T.);
#518=ORIENTED_EDGE('',*,*,#429,.T.);
#519=ORIENTED_EDGE('',*,*,#235,.T.);
#520=ORIENTED_EDGE('',*,*,#390,.F.);
#521=EDGE_LOOP('',(#517,#518,#519,#520));
#522=FACE_BOUND('',#521,.T.);
#523=ADVANCED_FACE('',(#522),#516,.T.);
#524=CARTESIAN_POINT('',(-14.5,0.0,-21.0));
#525=DIRECTION('',(0.0,0.0,1.0));
#526=DIRECTION('',(0.0,1.0,0.0));
#527=AXIS2_PLACEMENT_3D('',#524,#525,#526);
#528=PLANE('',#527);
#529=ORIENTED_EDGE('',*,*,#169,.T.);
#530=CARTESIAN_POINT('',(-24.0,0.0,-21.0));
#531=VERTEX_POINT('',#530);
#532=CARTESIAN_POINT('',(-14.5,0.0,-21.0));
#533=DIRECTION('',(0.0,-0.0,1.0));
#534=DIRECTION('',(0.0,1.0,0.0));
#535=AXIS2_PLACEMENT_3D('',#532,#533,#534);
#536=CIRCLE('',#535,9.5);
#537=EDGE_CURVE('',#158,#531,#536,.T.);
#538=ORIENTED_EDGE('',*,*,#537,.T.);
#539=CARTESIAN_POINT('',(-14.5,0.0,-21.0));
#540=DIRECTION('',(0.0,-0.0,1.0));
#541=DIRECTION('',(0.0,1.0,0.0));
#542=AXIS2_PLACEMENT_3D('',#539,#540,#541);
#543=CIRCLE('',#542,9.5);
#544=EDGE_CURVE('',#531,#181,#543,.T.);
#545=ORIENTED_EDGE('',*,*,#544,.T.);
#546=ORIENTED_EDGE('',*,*,#186,.T.);
#547=ORIENTED_EDGE('',*,*,#40,.T.);
#548=ORIENTED_EDGE('',*,*,#312,.F.);
#549=ORIENTED_EDGE('',*,*,#275,.F.);
#550=ORIENTED_EDGE('',*,*,#383,.F.);
#551=ORIENTED_EDGE('',*,*,#397,.F.);
#552=ORIENTED_EDGE('',*,*,#227,.F.);
#553=ORIENTED_EDGE('',*,*,#334,.F.);
#554=ORIENTED_EDGE('',*,*,#80,.T.);
#555=EDGE_LOOP('',(#529,#538,#545,#546,#547,#548,#549,#550,#551,#552,#553,#554));
#556=FACE_BOUND('',#555,.T.);
#557=ADVANCED_FACE('',(#556),#528,.T.);
#558=CARTESIAN_POINT('',(-14.5,0.0,0.0));
#559=DIRECTION('',(0.0,0.0,-1.0));
#560=DIRECTION('',(0.0,-1.0,0.0));
#561=AXIS2_PLACEMENT_3D('',#558,#559,#560);
#562=CYLINDRICAL_SURFACE('',#561,9.5);
#563=ORIENTED_EDGE('',*,*,#194,.F.);
#564=ORIENTED_EDGE('',*,*,#544,.F.);
#565=CARTESIAN_POINT('',(-24.0,0.0,-27.0));
#566=DIRECTION('',(-0.0,-0.0,1.0));
#567=VECTOR('',#566,6.0);
#568=LINE('',#565,#567);
#569=EDGE_CURVE('',#473,#531,#568,.T.);
#570=ORIENTED_EDGE('',*,*,#569,.F.);
#571=ORIENTED_EDGE('',*,*,#479,.F.);
#572=EDGE_LOOP('',(#563,#564,#570,#571));
#573=FACE_BOUND('',#572,.T.);
#574=ADVANCED_FACE('',(#573),#562,.T.);
#575=CARTESIAN_POINT('',(-14.5,0.0,0.0));
#576=DIRECTION('',(0.0,0.0,-1.0));
#577=DIRECTION('',(0.0,-1.0,0.0));
#578=AXIS2_PLACEMENT_3D('',#575,#576,#577);
#579=CYLINDRICAL_SURFACE('',#578,9.5);
#580=ORIENTED_EDGE('',*,*,#537,.F.);
#581=ORIENTED_EDGE('',*,*,#163,.F.);
#582=ORIENTED_EDGE('',*,*,#486,.F.);
#583=ORIENTED_EDGE('',*,*,#569,.T.);
#584=EDGE_LOOP('',(#580,#581,#582,#583));
#585=FACE_BOUND('',#584,.T.);
#586=ADVANCED_FACE('',(#585),#579,.T.);
#587=CARTESIAN_POINT('',(-14.5,0.0,-1.0));
#588=DIRECTION('',(0.0,0.0,-1.0));
#589=DIRECTION('',(0.0,-1.0,0.0));
#590=AXIS2_PLACEMENT_3D('',#587,#588,#589);
#591=CONICAL_SURFACE('',#590,6.0,45.0);
#592=CARTESIAN_POINT('',(-14.5,-6.0,-1.0));
#593=DIRECTION('',(-0.0,0.707106781,0.707106781));
#594=VECTOR('',#593,1.41421356);
#595=LINE('',#592,#594);
#596=EDGE_CURVE('',#354,#115,#595,.T.);
#597=ORIENTED_EDGE('',*,*,#596,.T.);
#598=ORIENTED_EDGE('',*,*,#121,.F.);
#599=ORIENTED_EDGE('',*,*,#128,.F.);
#600=ORIENTED_EDGE('',*,*,#596,.F.);
#601=ORIENTED_EDGE('',*,*,#375,.F.);
#602=ORIENTED_EDGE('',*,*,#368,.F.);
#603=EDGE_LOOP('',(#597,#598,#599,#600,#601,#602));
#604=FACE_BOUND('',#603,.T.);
#605=ADVANCED_FACE('',(#604),#591,.T.);
#606=CLOSED_SHELL('',(#66,#106,#143,#174,#205,#253,#301,#323,#345,#401,#441,#466,#499,#511,#523,#557,#574,#586,#605));
#607=MANIFOLD_SOLID_BREP('',#606);
#26=STYLED_ITEM('',(),#607);
#16=SHAPE_REPRESENTATION('C:\\Users\\SP\\AppData\\Local\\Temp\\Esprit.020.000\\RDR1-2.x_t',(#15),#10);
#17=ADVANCED_BREP_SHAPE_REPRESENTATION('C:\\Users\\SP\\AppData\\Local\\Temp\\Esprit.020.000\\RDR1-2.x_t',(#607),#10);
#615=SHAPE_REPRESENTATION_RELATIONSHIP('','',#16,#17);
#616=APPLICATION_CONTEXT('configuration controlled 3D design of mechanical parts and assemblies');
#617=APPLICATION_PROTOCOL_DEFINITION('international standard','configuration_control_3d_design_ed2_mim',2004,#616);
#618=PRODUCT_CONTEXT('',#616,'mechanical');
#619=PRODUCT_DEFINITION_CONTEXT('part definition',#616,'design');
#24=PRODUCT('C:\\Users\\SP\\AppData\\Local\\Temp\\Esprit.020.000\\RDR1-2.x_t','C:\\Users\\SP\\AppData\\Local\\Temp\\Esprit.020.000\\RDR1-2.x_t','',(#618));
#620=PRODUCT_RELATED_PRODUCT_CATEGORY('part','',(#24));
#621=PRODUCT_DEFINITION_FORMATION_WITH_SPECIFIED_SOURCE('','',#24,.NOT_KNOWN.);
#25=PRODUCT_DEFINITION('design','',#621,#619);
#23=PRODUCT_DEFINITION_SHAPE('','',#25);
#622=SHAPE_DEFINITION_REPRESENTATION(#23,#16);
#11=DRAUGHTING_MODEL('',(),#10);
#1=MECHANICAL_DESIGN_GEOMETRIC_PRESENTATION_REPRESENTATION('',(#26),#10);
ENDSEC;
END-ISO-10303-21;
