ISO-10303-21;
HEADER;
FILE_DESCRIPTION (( 'STEP AP214' ),
    '1' );
FILE_NAME ('levier .STEP',
    '2024-03-26T20:48:24',
    ( '' ),
    ( '' ),
    'SwSTEP 2.0',
    'SolidWorks 2020',
    '' );
FILE_SCHEMA (( 'AUTOMOTIVE_DESIGN' ));
ENDSEC;

DATA;
#1 = CARTESIAN_POINT ( 'NONE',  ( -23.00000000000000711, 277.9237694378343235, 7.500000000000000000 ) ) ;
#2 = ORIENTED_EDGE ( 'NONE', *, *, #367, .F. ) ;
#3 = EDGE_LOOP ( 'NONE', ( #21, #275, #286, #97 ) ) ;
#4 = ORIENTED_EDGE ( 'NONE', *, *, #242, .T. ) ;
#5 = DIRECTION ( 'NONE',  ( 0.6325362348956669045, -0.7745307686231799327, 0.000000000000000000 ) ) ;
#6 = DIRECTION ( 'NONE',  ( 0.000000000000000000, 0.000000000000000000, 1.000000000000000000 ) ) ;
#7 = DIRECTION ( 'NONE',  ( -1.000000000000000000, 2.320804527489189105E-17, 0.000000000000000000 ) ) ;
#8 = FACE_OUTER_BOUND ( 'NONE', #252, .T. ) ;
#9 = DIRECTION ( 'NONE',  ( -0.05224140045342832994, -0.9986344857247141382, 0.000000000000000000 ) ) ;
#10 = FILL_AREA_STYLE ('',( #363 ) ) ;
#11 = PLANE ( 'NONE',  #131 ) ;
#12 = PRODUCT_RELATED_PRODUCT_CATEGORY ( 'part', '', ( #343 ) ) ;
#13 = PRODUCT_DEFINITION_FORMATION_WITH_SPECIFIED_SOURCE ( 'ANY', '', #343, .NOT_KNOWN. ) ;
#14 = EDGE_LOOP ( 'NONE', ( #20, #151 ) ) ;
#15 = EDGE_LOOP ( 'NONE', ( #126, #127, #160, #65 ) ) ;
#16 = ORIENTED_EDGE ( 'NONE', *, *, #338, .F. ) ;
#17 = DIRECTION ( 'NONE',  ( -0.7745307686231810429, -0.6325362348956654612, 0.000000000000000000 ) ) ;
#18 = UNCERTAINTY_MEASURE_WITH_UNIT (LENGTH_MEASURE( 1.000000000000000082E-05 ), #173, 'distance_accuracy_value', 'NONE');
#19 = ORIENTED_EDGE ( 'NONE', *, *, #145, .F. ) ;
#20 = ORIENTED_EDGE ( 'NONE', *, *, #57, .F. ) ;
#21 = ORIENTED_EDGE ( 'NONE', *, *, #276, .T. ) ;
#22 = EDGE_CURVE ( 'NONE', #165, #316, #96, .T. ) ;
#23 = ADVANCED_BREP_SHAPE_REPRESENTATION ( 'levier ', ( #59, #256 ), #339 ) ;
#24 = AXIS2_PLACEMENT_3D ( 'NONE', #60, #313, #347 ) ;
#25 = DIRECTION ( 'NONE',  ( 0.6325362348956654612, -0.7745307686231810429, 0.000000000000000000 ) ) ;
#26 = DIRECTION ( 'NONE',  ( -0.000000000000000000, -0.000000000000000000, -1.000000000000000000 ) ) ;
#27 = ORIENTED_EDGE ( 'NONE', *, *, #241, .T. ) ;
#28 = CARTESIAN_POINT ( 'NONE',  ( -27.50000000000000711, 134.7538069655288098, 7.500000000000000000 ) ) ;
#29 = FACE_OUTER_BOUND ( 'NONE', #3, .T. ) ;
#30 =( GEOMETRIC_REPRESENTATION_CONTEXT ( 3 ) GLOBAL_UNCERTAINTY_ASSIGNED_CONTEXT ( ( #274 ) ) GLOBAL_UNIT_ASSIGNED_CONTEXT ( ( #348, #234, #289 ) ) REPRESENTATION_CONTEXT ( 'NONE', 'WORKASPACE' ) );
#31 = VERTEX_POINT ( 'NONE', #288 ) ;
#32 = ORIENTED_EDGE ( 'NONE', *, *, #293, .T. ) ;
#33 = DIRECTION ( 'NONE',  ( 2.320804527489188797E-17, 1.000000000000000000, 0.000000000000000000 ) ) ;
#34 = VECTOR ( 'NONE', #285, 1000.000000000000000 ) ;
#35 = ORIENTED_EDGE ( 'NONE', *, *, #37, .F. ) ;
#36 = LINE ( 'NONE', #392, #176 ) ;
#37 = EDGE_CURVE ( 'NONE', #277, #72, #253, .T. ) ;
#38 = CYLINDRICAL_SURFACE ( 'NONE', #294, 2.999999999999999112 ) ;
#39 = LINE ( 'NONE', #326, #260 ) ;
#40 = CARTESIAN_POINT ( 'NONE',  ( -27.50000000000000711, 134.7538069655288098, 7.500000000000000000 ) ) ;
#41 = FACE_OUTER_BOUND ( 'NONE', #314, .T. ) ;
#42 = DIRECTION ( 'NONE',  ( 0.9986344857247142492, -0.05224140045342835076, 0.000000000000000000 ) ) ;
#43 = DIRECTION ( 'NONE',  ( -0.000000000000000000, -0.000000000000000000, -1.000000000000000000 ) ) ;
#44 = ORIENTED_EDGE ( 'NONE', *, *, #110, .F. ) ;
#45 = MECHANICAL_DESIGN_GEOMETRIC_PRESENTATION_REPRESENTATION (  '', ( #119 ), #397 ) ;
#46 = SURFACE_STYLE_USAGE ( .BOTH. , #331 ) ;
#47 = ORIENTED_EDGE ( 'NONE', *, *, #309, .T. ) ;
#48 = VERTEX_POINT ( 'NONE', #283 ) ;
#49 = DIRECTION ( 'NONE',  ( -1.000000000000000000, 0.000000000000000000, 0.000000000000000000 ) ) ;
#50 = DIRECTION ( 'NONE',  ( -0.000000000000000000, -0.000000000000000000, -1.000000000000000000 ) ) ;
#51 = STYLED_ITEM ( 'NONE', ( #340 ), #23 ) ;
#52 = EDGE_LOOP ( 'NONE', ( #2, #342, #89, #401 ) ) ;
#53 = ORIENTED_EDGE ( 'NONE', *, *, #139, .F. ) ;
#54 = AXIS2_PLACEMENT_3D ( 'NONE', #351, #356, #410 ) ;
#55 = PLANE ( 'NONE',  #24 ) ;
#56 = EDGE_CURVE ( 'NONE', #148, #302, #123, .T. ) ;
#57 = EDGE_CURVE ( 'NONE', #254, #258, #378, .T. ) ;
#58 = ORIENTED_EDGE ( 'NONE', *, *, #338, .T. ) ;
#59 = MANIFOLD_SOLID_BREP ( 'Boss-Extrude1', #62 ) ;
#60 = CARTESIAN_POINT ( 'NONE',  ( -27.50000000000000711, 134.7538069655288098, -7.500000000000000000 ) ) ;
#61 = CIRCLE ( 'NONE', #409, 2.999999999999999112 ) ;
#62 = CLOSED_SHELL ( 'NONE', ( #163, #251, #75, #101, #291, #324, #411, #261, #250, #223, #164, #179 ) ) ;
#63 = ORIENTED_EDGE ( 'NONE', *, *, #143, .T. ) ;
#64 = AXIS2_PLACEMENT_3D ( 'NONE', #315, #25, #255 ) ;
#65 = ORIENTED_EDGE ( 'NONE', *, *, #226, .T. ) ;
#66 = ORIENTED_EDGE ( 'NONE', *, *, #400, .T. ) ;
#67 = CARTESIAN_POINT ( 'NONE',  ( -31.54625755685521682, 143.3490265545557349, -7.500000000000000000 ) ) ;
#68 = CARTESIAN_POINT ( 'NONE',  ( -23.00000000000000711, 277.9237694378342667, -7.500000000000000000 ) ) ;
#69 = DIRECTION ( 'NONE',  ( -0.000000000000000000, -0.000000000000000000, -1.000000000000000000 ) ) ;
#70 = ORIENTED_EDGE ( 'NONE', *, *, #368, .T. ) ;
#71 = CARTESIAN_POINT ( 'NONE',  ( -20.00000000000000711, 284.2470930591709930, 7.500000000000000000 ) ) ;
#72 = VERTEX_POINT ( 'NONE', #82 ) ;
#73 = CARTESIAN_POINT ( 'NONE',  ( -23.00000000000000711, 277.9237694378343235, -7.500000000000000000 ) ) ;
#74 = EDGE_CURVE ( 'NONE', #258, #380, #155, .T. ) ;
#75 = ADVANCED_FACE ( 'NONE', ( #311, #95, #282 ), #55, .F. ) ;
#76 = CARTESIAN_POINT ( 'NONE',  ( -27.50000000000000711, 134.7538069655288098, 7.500000000000000000 ) ) ;
#77 = FACE_OUTER_BOUND ( 'NONE', #244, .T. ) ;
#78 = CARTESIAN_POINT ( 'NONE',  ( -20.00000000000000711, 284.2470930591709930, -7.500000000000000000 ) ) ;
#79 = LINE ( 'NONE', #334, #295 ) ;
#80 = SURFACE_STYLE_FILL_AREA ( #370 ) ;
#81 = ORIENTED_EDGE ( 'NONE', *, *, #57, .T. ) ;
#82 = CARTESIAN_POINT ( 'NONE',  ( -31.54625755685521682, 143.3490265545557349, 7.500000000000000000 ) ) ;
#83 = FACE_OUTER_BOUND ( 'NONE', #267, .T. ) ;
#84 = PRODUCT_DEFINITION ( 'UNKNOWN', '', #13, #178 ) ;
#85 = EDGE_CURVE ( 'NONE', #72, #349, #94, .T. ) ;
#86 = EDGE_LOOP ( 'NONE', ( #70, #387, #44, #121 ) ) ;
#87 = PLANE ( 'NONE',  #64 ) ;
#88 = DIRECTION ( 'NONE',  ( 0.000000000000000000, 1.000000000000000000, 0.000000000000000000 ) ) ;
#89 = ORIENTED_EDGE ( 'NONE', *, *, #139, .T. ) ;
#90 = DIRECTION ( 'NONE',  ( -0.05224140045342835076, -0.9986344857247141382, 0.000000000000000000 ) ) ;
#91 = APPLICATION_CONTEXT ( 'automotive_design' ) ;
#92 = VERTEX_POINT ( 'NONE', #233 ) ;
#93 = FACE_OUTER_BOUND ( 'NONE', #403, .T. ) ;
#94 = LINE ( 'NONE', #187, #221 ) ;
#95 = FACE_OUTER_BOUND ( 'NONE', #158, .T. ) ;
#96 = LINE ( 'NONE', #382, #183 ) ;
#97 = ORIENTED_EDGE ( 'NONE', *, *, #191, .T. ) ;
#98 = CARTESIAN_POINT ( 'NONE',  ( -24.50000000000000711, 134.7538069655288098, 7.500000000000000000 ) ) ;
#99 = AXIS2_PLACEMENT_3D ( 'NONE', #296, #329, #196 ) ;
#100 = CARTESIAN_POINT ( 'NONE',  ( -24.50000000000000711, 134.7538069655288098, -7.500000000000000000 ) ) ;
#101 = ADVANCED_FACE ( 'NONE', ( #29 ), #278, .T. ) ;
#102 = EDGE_CURVE ( 'NONE', #109, #302, #195, .T. ) ;
#103 = DIRECTION ( 'NONE',  ( 0.000000000000000000, 1.000000000000000000, 0.000000000000000000 ) ) ;
#104 = VECTOR ( 'NONE', #26, 1000.000000000000000 ) ;
#105 = PLANE ( 'NONE',  #352 ) ;
#106 = DIRECTION ( 'NONE',  ( 0.000000000000000000, 0.000000000000000000, 1.000000000000000000 ) ) ;
#107 = CARTESIAN_POINT ( 'NONE',  ( -27.50000000000000711, 278.1220661991657153, 7.500000000000000000 ) ) ;
#108 = CARTESIAN_POINT ( 'NONE',  ( -23.00000000000000711, 277.9237694378343235, 7.500000000000000000 ) ) ;
#109 = VERTEX_POINT ( 'NONE', #224 ) ;
#110 = EDGE_CURVE ( 'NONE', #165, #48, #414, .T. ) ;
#111 = DIRECTION ( 'NONE',  ( 1.000000000000000000, 0.000000000000000000, 0.000000000000000000 ) ) ;
#112 = AXIS2_PLACEMENT_3D ( 'NONE', #107, #243, #246 ) ;
#113 = FACE_OUTER_BOUND ( 'NONE', #52, .T. ) ;
#114 = ORIENTED_EDGE ( 'NONE', *, *, #130, .F. ) ;
#115 = VERTEX_POINT ( 'NONE', #68 ) ;
#116 = AXIS2_PLACEMENT_3D ( 'NONE', #364, #7, #235 ) ;
#117 = ORIENTED_EDGE ( 'NONE', *, *, #242, .F. ) ;
#118 = CARTESIAN_POINT ( 'NONE',  ( -27.50000000000000711, 278.1220661991657153, 7.500000000000000000 ) ) ;
#119 = STYLED_ITEM ( 'NONE', ( #146 ), #59 ) ;
#120 = VECTOR ( 'NONE', #321, 1000.000000000000000 ) ;
#121 = ORIENTED_EDGE ( 'NONE', *, *, #22, .T. ) ;
#122 = LINE ( 'NONE', #1, #120 ) ;
#123 = LINE ( 'NONE', #228, #265 ) ;
#124 = ORIENTED_EDGE ( 'NONE', *, *, #399, .F. ) ;
#125 = DIRECTION ( 'NONE',  ( -0.000000000000000000, -0.000000000000000000, -1.000000000000000000 ) ) ;
#126 = ORIENTED_EDGE ( 'NONE', *, *, #56, .T. ) ;
#127 = ORIENTED_EDGE ( 'NONE', *, *, #102, .F. ) ;
#128 = CARTESIAN_POINT ( 'NONE',  ( -20.00000000000000711, 284.2470930591709930, 7.500000000000000000 ) ) ;
#129 = CARTESIAN_POINT ( 'NONE',  ( -23.00000000000000711, 143.1204072308695459, -7.500000000000000000 ) ) ;
#130 = EDGE_CURVE ( 'NONE', #92, #115, #122, .T. ) ;
#131 = AXIS2_PLACEMENT_3D ( 'NONE', #71, #5, #168 ) ;
#132 = DIRECTION ( 'NONE',  ( -1.000000000000000000, 0.000000000000000000, 0.000000000000000000 ) ) ;
#133 = DIRECTION ( 'NONE',  ( 0.000000000000000000, 0.000000000000000000, 1.000000000000000000 ) ) ;
#134 = DIRECTION ( 'NONE',  ( 1.000000000000000000, 0.000000000000000000, 0.000000000000000000 ) ) ;
#135 = CARTESIAN_POINT ( 'NONE',  ( -23.00000000000000711, 143.1204072308695459, 7.500000000000000000 ) ) ;
#136 = AXIS2_PLACEMENT_3D ( 'NONE', #320, #6, #391 ) ;
#137 = PRESENTATION_LAYER_ASSIGNMENT (  '', '', ( #51 ) ) ;
#138 = ORIENTED_EDGE ( 'NONE', *, *, #399, .T. ) ;
#139 = EDGE_CURVE ( 'NONE', #322, #92, #381, .T. ) ;
#140 = APPLICATION_PROTOCOL_DEFINITION ( 'draft international standard', 'automotive_design', 1998, #91 ) ;
#141 = ORIENTED_EDGE ( 'NONE', *, *, #56, .F. ) ;
#142 = APPLICATION_PROTOCOL_DEFINITION ( 'draft international standard', 'automotive_design', 1998, #353 ) ;
#143 = EDGE_CURVE ( 'NONE', #31, #165, #157, .T. ) ;
#144 = CARTESIAN_POINT ( 'NONE',  ( -23.00000000000000711, 143.1204072308695459, 7.500000000000000000 ) ) ;
#145 = EDGE_CURVE ( 'NONE', #254, #227, #167, .T. ) ;
#146 = PRESENTATION_STYLE_ASSIGNMENT (( #46 ) ) ;
#147 = UNCERTAINTY_MEASURE_WITH_UNIT (LENGTH_MEASURE( 1.000000000000000082E-05 ), #317, 'distance_accuracy_value', 'NONE');
#148 = VERTEX_POINT ( 'NONE', #78 ) ;
#149 = LINE ( 'NONE', #270, #306 ) ;
#150 = AXIS2_PLACEMENT_3D ( 'NONE', #144, #373, #215 ) ;
#151 = ORIENTED_EDGE ( 'NONE', *, *, #388, .F. ) ;
#152 = ORIENTED_EDGE ( 'NONE', *, *, #74, .F. ) ;
#153 = CARTESIAN_POINT ( 'NONE',  ( -24.50000000000000711, 134.7538069655288098, 7.500000000000000000 ) ) ;
#154 = ORIENTED_EDGE ( 'NONE', *, *, #293, .F. ) ;
#155 = LINE ( 'NONE', #153, #104 ) ;
#156 = CARTESIAN_POINT ( 'NONE',  ( -24.57349468916726920, 276.6387431398043191, 7.500000000000000000 ) ) ;
#157 = CIRCLE ( 'NONE', #333, 7.499999999999996447 ) ;
#158 = EDGE_LOOP ( 'NONE', ( #200, #390, #141, #408 ) ) ;
#159 = DIRECTION ( 'NONE',  ( -0.000000000000000000, -0.000000000000000000, -1.000000000000000000 ) ) ;
#160 = ORIENTED_EDGE ( 'NONE', *, *, #325, .F. ) ;
#161 = VECTOR ( 'NONE', #257, 1000.000000000000227 ) ;
#162 = CARTESIAN_POINT ( 'NONE',  ( -27.50000000000000711, 278.1220661991657153, -7.500000000000000000 ) ) ;
#163 = ADVANCED_FACE ( 'NONE', ( #8 ), #330, .F. ) ;
#164 = ADVANCED_FACE ( 'NONE', ( #375 ), #371, .T. ) ;
#165 = VERTEX_POINT ( 'NONE', #211 ) ;
#166 = CARTESIAN_POINT ( 'NONE',  ( -27.50000000000000711, 278.1220661991657153, 7.500000000000000000 ) ) ;
#167 = LINE ( 'NONE', #205, #247 ) ;
#168 = DIRECTION ( 'NONE',  ( 0.7745307686231798217, 0.6325362348956667935, 0.000000000000000000 ) ) ;
#169 = CARTESIAN_POINT ( 'NONE',  ( -27.50000000000000711, 134.7538069655288098, -7.500000000000000000 ) ) ;
#170 = COLOUR_RGB ( '',0.7921568627450980005, 0.8196078431372548767, 0.9333333333333333481 ) ;
#171 = PRODUCT_DEFINITION_SHAPE ( 'NONE', 'NONE',  #84 ) ;
#172 = CARTESIAN_POINT ( 'NONE',  ( -24.57349468916726920, 276.6387431398043191, 7.500000000000000000 ) ) ;
#173 =( LENGTH_UNIT ( ) NAMED_UNIT ( * ) SI_UNIT ( .MILLI., .METRE. ) );
#174 = LINE ( 'NONE', #189, #406 ) ;
#175 = CIRCLE ( 'NONE', #99, 9.500000000000001776 ) ;
#176 = VECTOR ( 'NONE', #103, 1000.000000000000000 ) ;
#177 = CARTESIAN_POINT ( 'NONE',  ( -24.57349468916726920, 276.6387431398043191, 7.500000000000000000 ) ) ;
#178 = PRODUCT_DEFINITION_CONTEXT ( 'detailed design', #91, 'design' ) ;
#179 = ADVANCED_FACE ( 'NONE', ( #113 ), #303, .T. ) ;
#180 = EDGE_CURVE ( 'NONE', #92, #277, #396, .T. ) ;
#181 = EDGE_LOOP ( 'NONE', ( #279, #4, #32, #206 ) ) ;
#182 = VECTOR ( 'NONE', #281, 1000.000000000000227 ) ;
#183 = VECTOR ( 'NONE', #69, 1000.000000000000000 ) ;
#184 = EDGE_LOOP ( 'NONE', ( #154, #193, #58, #66 ) ) ;
#185 = VECTOR ( 'NONE', #17, 1000.000000000000000 ) ;
#186 = EDGE_LOOP ( 'NONE', ( #138, #27 ) ) ;
#187 = CARTESIAN_POINT ( 'NONE',  ( -31.54625755685521682, 143.3490265545557349, 7.500000000000000000 ) ) ;
#188 = ORIENTED_EDGE ( 'NONE', *, *, #225, .F. ) ;
#189 = CARTESIAN_POINT ( 'NONE',  ( -24.57349468916726920, 276.6387431398043191, 7.500000000000000000 ) ) ;
#190 = CARTESIAN_POINT ( 'NONE',  ( -20.00000000000001066, 134.7538069655288098, 7.500000000000000000 ) ) ;
#191 = EDGE_CURVE ( 'NONE', #31, #231, #149, .T. ) ;
#192 = EDGE_LOOP ( 'NONE', ( #63, #383, #374, #248 ) ) ;
#193 = ORIENTED_EDGE ( 'NONE', *, *, #85, .F. ) ;
#194 =( NAMED_UNIT ( * ) PLANE_ANGLE_UNIT ( ) SI_UNIT ( $, .RADIAN. ) );
#195 = LINE ( 'NONE', #118, #412 ) ;
#196 = DIRECTION ( 'NONE',  ( 1.000000000000000000, 0.000000000000000000, 0.000000000000000000 ) ) ;
#197 =( NAMED_UNIT ( * ) SI_UNIT ( $, .STERADIAN. ) SOLID_ANGLE_UNIT ( ) );
#198 = AXIS2_PLACEMENT_3D ( 'NONE', #360, #395, #232 ) ;
#199 = VECTOR ( 'NONE', #33, 1000.000000000000000 ) ;
#200 = ORIENTED_EDGE ( 'NONE', *, *, #276, .F. ) ;
#201 = LINE ( 'NONE', #323, #199 ) ;
#202 = AXIS2_PLACEMENT_3D ( 'NONE', #304, #216, #111 ) ;
#203 = ORIENTED_EDGE ( 'NONE', *, *, #225, .T. ) ;
#204 = PLANE ( 'NONE',  #116 ) ;
#205 = CARTESIAN_POINT ( 'NONE',  ( -30.50000000000000711, 134.7538069655288098, 7.500000000000000000 ) ) ;
#206 = ORIENTED_EDGE ( 'NONE', *, *, #367, .T. ) ;
#207 = DIRECTION ( 'NONE',  ( 0.000000000000000000, 0.000000000000000000, 1.000000000000000000 ) ) ;
#208 = DIRECTION ( 'NONE',  ( 1.000000000000000000, 0.000000000000000000, -0.000000000000000000 ) ) ;
#209 = SURFACE_STYLE_FILL_AREA ( #10 ) ;
#210 = VECTOR ( 'NONE', #292, 1000.000000000000000 ) ;
#211 = CARTESIAN_POINT ( 'NONE',  ( -20.00000000000001066, 134.7538069655288098, 7.500000000000000000 ) ) ;
#212 = VERTEX_POINT ( 'NONE', #407 ) ;
#213 = SHAPE_DEFINITION_REPRESENTATION ( #171, #23 ) ;
#214 = SURFACE_SIDE_STYLE ('',( #80 ) ) ;
#215 = DIRECTION ( 'NONE',  ( 0.000000000000000000, 0.000000000000000000, 1.000000000000000000 ) ) ;
#216 = DIRECTION ( 'NONE',  ( 0.000000000000000000, 0.000000000000000000, 1.000000000000000000 ) ) ;
#217 = PLANE ( 'NONE',  #112 ) ;
#218 = CIRCLE ( 'NONE', #198, 9.500000000000001776 ) ;
#219 = PLANE ( 'NONE',  #350 ) ;
#220 = ORIENTED_EDGE ( 'NONE', *, *, #191, .F. ) ;
#221 = VECTOR ( 'NONE', #125, 1000.000000000000000 ) ;
#222 = DIRECTION ( 'NONE',  ( 1.000000000000000000, 0.000000000000000000, 0.000000000000000000 ) ) ;
#223 = ADVANCED_FACE ( 'NONE', ( #83 ), #219, .T. ) ;
#224 = CARTESIAN_POINT ( 'NONE',  ( -27.50000000000000711, 278.1220661991657153, 7.500000000000000000 ) ) ;
#225 = EDGE_CURVE ( 'NONE', #277, #212, #174, .T. ) ;
#226 = EDGE_CURVE ( 'NONE', #48, #148, #284, .T. ) ;
#227 = VERTEX_POINT ( 'NONE', #307 ) ;
#228 = CARTESIAN_POINT ( 'NONE',  ( -20.00000000000000711, 284.2470930591709930, -7.500000000000000000 ) ) ;
#229 = ORIENTED_EDGE ( 'NONE', *, *, #180, .T. ) ;
#230 = VECTOR ( 'NONE', #50, 1000.000000000000000 ) ;
#231 = VERTEX_POINT ( 'NONE', #310 ) ;
#232 = DIRECTION ( 'NONE',  ( 1.000000000000000000, 0.000000000000000000, 0.000000000000000000 ) ) ;
#233 = CARTESIAN_POINT ( 'NONE',  ( -23.00000000000000711, 277.9237694378343235, 7.500000000000000000 ) ) ;
#234 =( NAMED_UNIT ( * ) PLANE_ANGLE_UNIT ( ) SI_UNIT ( $, .RADIAN. ) );
#235 = DIRECTION ( 'NONE',  ( -2.320804527489189105E-17, -1.000000000000000000, 0.000000000000000000 ) ) ;
#236 = CIRCLE ( 'NONE', #300, 2.999999999999999112 ) ;
#237 = FACE_OUTER_BOUND ( 'NONE', #192, .T. ) ;
#238 = CARTESIAN_POINT ( 'NONE',  ( -30.50000000000000711, 134.7538069655288098, 7.500000000000000000 ) ) ;
#239 = CARTESIAN_POINT ( 'NONE',  ( -27.50000000000000711, 134.7538069655288098, 7.500000000000000000 ) ) ;
#240 = DIRECTION ( 'NONE',  ( 1.000000000000000000, 0.000000000000000000, 0.000000000000000000 ) ) ;
#241 = EDGE_CURVE ( 'NONE', #380, #227, #384, .T. ) ;
#242 = EDGE_CURVE ( 'NONE', #212, #349, #346, .T. ) ;
#243 = DIRECTION ( 'NONE',  ( 0.9986344857247142492, -0.05224140045342833688, 0.000000000000000000 ) ) ;
#244 = EDGE_LOOP ( 'NONE', ( #152, #280, #305, #354 ) ) ;
#245 = FILL_AREA_STYLE_COLOUR ( '', #170 ) ;
#246 = DIRECTION ( 'NONE',  ( 0.05224140045342832994, 0.9986344857247141382, 0.000000000000000000 ) ) ;
#247 = VECTOR ( 'NONE', #335, 1000.000000000000000 ) ;
#248 = ORIENTED_EDGE ( 'NONE', *, *, #369, .T. ) ;
#249 = ORIENTED_EDGE ( 'NONE', *, *, #308, .F. ) ;
#250 = ADVANCED_FACE ( 'NONE', ( #93 ), #87, .T. ) ;
#251 = ADVANCED_FACE ( 'NONE', ( #237, #259, #389 ), #105, .T. ) ;
#252 = EDGE_LOOP ( 'NONE', ( #81, #272, #124, #19 ) ) ;
#253 = LINE ( 'NONE', #156, #393 ) ;
#254 = VERTEX_POINT ( 'NONE', #238 ) ;
#255 = DIRECTION ( 'NONE',  ( 0.7745307686231810429, 0.6325362348956654612, 0.000000000000000000 ) ) ;
#256 = AXIS2_PLACEMENT_3D ( 'NONE', #372, #266, #134 ) ;
#257 = DIRECTION ( 'NONE',  ( -0.7745307686231798217, -0.6325362348956667935, 0.000000000000000000 ) ) ;
#258 = VERTEX_POINT ( 'NONE', #98 ) ;
#259 = FACE_BOUND ( 'NONE', #14, .T. ) ;
#260 = VECTOR ( 'NONE', #9, 1000.000000000000227 ) ;
#261 = ADVANCED_FACE ( 'NONE', ( #77 ), #38, .F. ) ;
#262 = CARTESIAN_POINT ( 'NONE',  ( -20.00000000000001066, 134.7538069655288098, -7.500000000000000000 ) ) ;
#263 = DIRECTION ( 'NONE',  ( 1.000000000000000000, 0.000000000000000000, 0.000000000000000000 ) ) ;
#264 = LINE ( 'NONE', #128, #161 ) ;
#265 = VECTOR ( 'NONE', #405, 1000.000000000000227 ) ;
#266 = DIRECTION ( 'NONE',  ( 0.000000000000000000, 0.000000000000000000, 1.000000000000000000 ) ) ;
#267 = EDGE_LOOP ( 'NONE', ( #117, #188, #415, #359 ) ) ;
#268 = ORIENTED_EDGE ( 'NONE', *, *, #180, .F. ) ;
#269 =( NAMED_UNIT ( * ) SI_UNIT ( $, .STERADIAN. ) SOLID_ANGLE_UNIT ( ) );
#270 = CARTESIAN_POINT ( 'NONE',  ( -35.00000000000000000, 134.7538069655288098, 7.500000000000000000 ) ) ;
#271 = DIRECTION ( 'NONE',  ( -0.000000000000000000, -0.000000000000000000, -1.000000000000000000 ) ) ;
#272 = ORIENTED_EDGE ( 'NONE', *, *, #74, .T. ) ;
#273 = CARTESIAN_POINT ( 'NONE',  ( -23.00000000000000711, 143.1204072308695459, 7.500000000000000000 ) ) ;
#274 = UNCERTAINTY_MEASURE_WITH_UNIT (LENGTH_MEASURE( 1.000000000000000082E-05 ), #348, 'distance_accuracy_value', 'NONE');
#275 = ORIENTED_EDGE ( 'NONE', *, *, #22, .F. ) ;
#276 = EDGE_CURVE ( 'NONE', #231, #316, #318, .T. ) ;
#277 = VERTEX_POINT ( 'NONE', #172 ) ;
#278 = CYLINDRICAL_SURFACE ( 'NONE', #54, 7.499999999999996447 ) ;
#279 = ORIENTED_EDGE ( 'NONE', *, *, #308, .T. ) ;
#280 = ORIENTED_EDGE ( 'NONE', *, *, #388, .T. ) ;
#281 = DIRECTION ( 'NONE',  ( -0.05224140045342835076, -0.9986344857247141382, 0.000000000000000000 ) ) ;
#282 = FACE_BOUND ( 'NONE', #181, .T. ) ;
#283 = CARTESIAN_POINT ( 'NONE',  ( -20.00000000000000711, 284.2470930591709930, 7.500000000000000000 ) ) ;
#284 = LINE ( 'NONE', #385, #230 ) ;
#285 = DIRECTION ( 'NONE',  ( 2.320804527489188797E-17, 1.000000000000000000, 0.000000000000000000 ) ) ;
#286 = ORIENTED_EDGE ( 'NONE', *, *, #143, .F. ) ;
#287 = LINE ( 'NONE', #73, #210 ) ;
#288 = CARTESIAN_POINT ( 'NONE',  ( -35.00000000000000000, 134.7538069655288098, 7.500000000000000000 ) ) ;
#289 =( NAMED_UNIT ( * ) SI_UNIT ( $, .STERADIAN. ) SOLID_ANGLE_UNIT ( ) );
#290 = DIRECTION ( 'NONE',  ( -0.05224140045342832994, -0.9986344857247141382, 0.000000000000000000 ) ) ;
#291 = ADVANCED_FACE ( 'NONE', ( #355 ), #204, .F. ) ;
#292 = DIRECTION ( 'NONE',  ( -0.7745307686231810429, -0.6325362348956654612, 0.000000000000000000 ) ) ;
#293 = EDGE_CURVE ( 'NONE', #349, #376, #175, .T. ) ;
#294 = AXIS2_PLACEMENT_3D ( 'NONE', #28, #298, #132 ) ;
#295 = VECTOR ( 'NONE', #398, 1000.000000000000000 ) ;
#296 = CARTESIAN_POINT ( 'NONE',  ( -27.50000000000000711, 134.7538069655288098, -7.500000000000000000 ) ) ;
#297 = AXIS2_PLACEMENT_3D ( 'NONE', #336, #43, #402 ) ;
#298 = DIRECTION ( 'NONE',  ( -0.000000000000000000, -0.000000000000000000, -1.000000000000000000 ) ) ;
#299 = DIRECTION ( 'NONE',  ( 0.05224140045342834382, 0.9986344857247141382, 0.000000000000000000 ) ) ;
#300 = AXIS2_PLACEMENT_3D ( 'NONE', #76, #207, #327 ) ;
#301 = COLOUR_RGB ( '',0.7921568627450980005, 0.8196078431372548767, 0.9333333333333333481 ) ;
#302 = VERTEX_POINT ( 'NONE', #162 ) ;
#303 = PLANE ( 'NONE',  #150 ) ;
#304 = CARTESIAN_POINT ( 'NONE',  ( -27.50000000000000711, 134.7538069655288098, 7.500000000000000000 ) ) ;
#305 = ORIENTED_EDGE ( 'NONE', *, *, #145, .T. ) ;
#306 = VECTOR ( 'NONE', #271, 1000.000000000000000 ) ;
#307 = CARTESIAN_POINT ( 'NONE',  ( -30.50000000000000711, 134.7538069655288098, -7.500000000000000000 ) ) ;
#308 = EDGE_CURVE ( 'NONE', #115, #212, #287, .T. ) ;
#309 = EDGE_CURVE ( 'NONE', #302, #231, #39, .T. ) ;
#310 = CARTESIAN_POINT ( 'NONE',  ( -35.00000000000000000, 134.7538069655288098, -7.500000000000000000 ) ) ;
#311 = FACE_BOUND ( 'NONE', #186, .T. ) ;
#312 = CARTESIAN_POINT ( 'NONE',  ( -24.57349468916726920, 276.6387431398043191, -7.500000000000000000 ) ) ;
#313 = DIRECTION ( 'NONE',  ( 0.000000000000000000, 0.000000000000000000, 1.000000000000000000 ) ) ;
#314 = EDGE_LOOP ( 'NONE', ( #47, #220, #345, #319 ) ) ;
#315 = CARTESIAN_POINT ( 'NONE',  ( -23.00000000000000711, 277.9237694378343235, 7.500000000000000000 ) ) ;
#316 = VERTEX_POINT ( 'NONE', #262 ) ;
#317 =( LENGTH_UNIT ( ) NAMED_UNIT ( * ) SI_UNIT ( .MILLI., .METRE. ) );
#318 = CIRCLE ( 'NONE', #136, 7.499999999999996447 ) ;
#319 = ORIENTED_EDGE ( 'NONE', *, *, #102, .T. ) ;
#320 = CARTESIAN_POINT ( 'NONE',  ( -27.50000000000000711, 134.7538069655288098, -7.500000000000000000 ) ) ;
#321 = DIRECTION ( 'NONE',  ( -0.000000000000000000, -0.000000000000000000, -1.000000000000000000 ) ) ;
#322 = VERTEX_POINT ( 'NONE', #135 ) ;
#323 = CARTESIAN_POINT ( 'NONE',  ( -20.00000000000001066, 134.7538069655288098, -7.500000000000000000 ) ) ;
#324 = ADVANCED_FACE ( 'NONE', ( #357 ), #11, .F. ) ;
#325 = EDGE_CURVE ( 'NONE', #48, #109, #264, .T. ) ;
#326 = CARTESIAN_POINT ( 'NONE',  ( -27.50000000000000711, 278.1220661991657153, -7.500000000000000000 ) ) ;
#327 = DIRECTION ( 'NONE',  ( 1.000000000000000000, 0.000000000000000000, 0.000000000000000000 ) ) ;
#328 = CARTESIAN_POINT ( 'NONE',  ( -27.50000000000000711, 134.7538069655288098, 7.500000000000000000 ) ) ;
#329 = DIRECTION ( 'NONE',  ( -0.000000000000000000, -0.000000000000000000, -1.000000000000000000 ) ) ;
#330 = CYLINDRICAL_SURFACE ( 'NONE', #386, 2.999999999999999112 ) ;
#331 = SURFACE_SIDE_STYLE ('',( #209 ) ) ;
#332 = PRODUCT_CONTEXT ( 'NONE', #353, 'mechanical' ) ;
#333 = AXIS2_PLACEMENT_3D ( 'NONE', #328, #106, #240 ) ;
#334 = CARTESIAN_POINT ( 'NONE',  ( -23.00000000000000711, 143.1204072308695459, 7.500000000000000000 ) ) ;
#335 = DIRECTION ( 'NONE',  ( -0.000000000000000000, -0.000000000000000000, -1.000000000000000000 ) ) ;
#336 = CARTESIAN_POINT ( 'NONE',  ( -27.50000000000000711, 134.7538069655288098, 7.500000000000000000 ) ) ;
#337 =( NAMED_UNIT ( * ) PLANE_ANGLE_UNIT ( ) SI_UNIT ( $, .RADIAN. ) );
#338 = EDGE_CURVE ( 'NONE', #72, #322, #218, .T. ) ;
#339 =( GEOMETRIC_REPRESENTATION_CONTEXT ( 3 ) GLOBAL_UNCERTAINTY_ASSIGNED_CONTEXT ( ( #18 ) ) GLOBAL_UNIT_ASSIGNED_CONTEXT ( ( #173, #337, #269 ) ) REPRESENTATION_CONTEXT ( 'NONE', 'WORKASPACE' ) );
#340 = PRESENTATION_STYLE_ASSIGNMENT (( #404 ) ) ;
#341 = VECTOR ( 'NONE', #88, 1000.000000000000000 ) ;
#342 = ORIENTED_EDGE ( 'NONE', *, *, #400, .F. ) ;
#343 = PRODUCT ( 'levier ', 'levier ', '', ( #332 ) ) ;
#344 = EDGE_LOOP ( 'NONE', ( #35, #268, #53, #16 ) ) ;
#345 = ORIENTED_EDGE ( 'NONE', *, *, #369, .F. ) ;
#346 = LINE ( 'NONE', #312, #182 ) ;
#347 = DIRECTION ( 'NONE',  ( 1.000000000000000000, 0.000000000000000000, -0.000000000000000000 ) ) ;
#348 =( LENGTH_UNIT ( ) NAMED_UNIT ( * ) SI_UNIT ( .MILLI., .METRE. ) );
#349 = VERTEX_POINT ( 'NONE', #67 ) ;
#350 = AXIS2_PLACEMENT_3D ( 'NONE', #177, #42, #299 ) ;
#351 = CARTESIAN_POINT ( 'NONE',  ( -27.50000000000000711, 134.7538069655288098, 7.500000000000000000 ) ) ;
#352 = AXIS2_PLACEMENT_3D ( 'NONE', #239, #394, #208 ) ;
#353 = APPLICATION_CONTEXT ( 'automotive_design' ) ;
#354 = ORIENTED_EDGE ( 'NONE', *, *, #241, .F. ) ;
#355 = FACE_OUTER_BOUND ( 'NONE', #86, .T. ) ;
#356 = DIRECTION ( 'NONE',  ( -0.000000000000000000, -0.000000000000000000, -1.000000000000000000 ) ) ;
#357 = FACE_OUTER_BOUND ( 'NONE', #15, .T. ) ;
#358 = VECTOR ( 'NONE', #290, 1000.000000000000227 ) ;
#359 = ORIENTED_EDGE ( 'NONE', *, *, #85, .T. ) ;
#360 = CARTESIAN_POINT ( 'NONE',  ( -27.50000000000000711, 134.7538069655288098, 7.500000000000000000 ) ) ;
#361 = PRESENTATION_LAYER_ASSIGNMENT (  '', '', ( #119 ) ) ;
#362 = LINE ( 'NONE', #166, #358 ) ;
#363 = FILL_AREA_STYLE_COLOUR ( '', #301 ) ;
#364 = CARTESIAN_POINT ( 'NONE',  ( -20.00000000000001066, 134.7538069655288098, 7.500000000000000000 ) ) ;
#365 = AXIS2_PLACEMENT_3D ( 'NONE', #416, #379, #222 ) ;
#366 = DIRECTION ( 'NONE',  ( -0.000000000000000000, -0.000000000000000000, -1.000000000000000000 ) ) ;
#367 = EDGE_CURVE ( 'NONE', #376, #115, #36, .T. ) ;
#368 = EDGE_CURVE ( 'NONE', #316, #148, #201, .T. ) ;
#369 = EDGE_CURVE ( 'NONE', #109, #31, #362, .T. ) ;
#370 = FILL_AREA_STYLE ('',( #245 ) ) ;
#371 = CYLINDRICAL_SURFACE ( 'NONE', #297, 9.499999999999998224 ) ;
#372 = CARTESIAN_POINT ( 'NONE',  ( 0.000000000000000000, 0.000000000000000000, 0.000000000000000000 ) ) ;
#373 = DIRECTION ( 'NONE',  ( -1.000000000000000000, 0.000000000000000000, 0.000000000000000000 ) ) ;
#374 = ORIENTED_EDGE ( 'NONE', *, *, #325, .T. ) ;
#375 = FACE_OUTER_BOUND ( 'NONE', #184, .T. ) ;
#376 = VERTEX_POINT ( 'NONE', #129 ) ;
#377 = MECHANICAL_DESIGN_GEOMETRIC_PRESENTATION_REPRESENTATION (  '', ( #51 ), #30 ) ;
#378 = CIRCLE ( 'NONE', #202, 2.999999999999999112 ) ;
#379 = DIRECTION ( 'NONE',  ( 0.000000000000000000, 0.000000000000000000, 1.000000000000000000 ) ) ;
#380 = VERTEX_POINT ( 'NONE', #100 ) ;
#381 = LINE ( 'NONE', #273, #341 ) ;
#382 = CARTESIAN_POINT ( 'NONE',  ( -20.00000000000001066, 134.7538069655288098, 7.500000000000000000 ) ) ;
#383 = ORIENTED_EDGE ( 'NONE', *, *, #110, .T. ) ;
#384 = CIRCLE ( 'NONE', #365, 2.999999999999999112 ) ;
#385 = CARTESIAN_POINT ( 'NONE',  ( -20.00000000000000711, 284.2470930591709930, 7.500000000000000000 ) ) ;
#386 = AXIS2_PLACEMENT_3D ( 'NONE', #40, #366, #49 ) ;
#387 = ORIENTED_EDGE ( 'NONE', *, *, #226, .F. ) ;
#388 = EDGE_CURVE ( 'NONE', #258, #254, #236, .T. ) ;
#389 = FACE_BOUND ( 'NONE', #344, .T. ) ;
#390 = ORIENTED_EDGE ( 'NONE', *, *, #309, .F. ) ;
#391 = DIRECTION ( 'NONE',  ( 1.000000000000000000, 0.000000000000000000, 0.000000000000000000 ) ) ;
#392 = CARTESIAN_POINT ( 'NONE',  ( -23.00000000000000711, 143.1204072308695459, -7.500000000000000000 ) ) ;
#393 = VECTOR ( 'NONE', #90, 1000.000000000000227 ) ;
#394 = DIRECTION ( 'NONE',  ( 0.000000000000000000, 0.000000000000000000, 1.000000000000000000 ) ) ;
#395 = DIRECTION ( 'NONE',  ( -0.000000000000000000, -0.000000000000000000, -1.000000000000000000 ) ) ;
#396 = LINE ( 'NONE', #108, #185 ) ;
#397 =( GEOMETRIC_REPRESENTATION_CONTEXT ( 3 ) GLOBAL_UNCERTAINTY_ASSIGNED_CONTEXT ( ( #147 ) ) GLOBAL_UNIT_ASSIGNED_CONTEXT ( ( #317, #194, #197 ) ) REPRESENTATION_CONTEXT ( 'NONE', 'WORKASPACE' ) );
#398 = DIRECTION ( 'NONE',  ( -0.000000000000000000, -0.000000000000000000, -1.000000000000000000 ) ) ;
#399 = EDGE_CURVE ( 'NONE', #227, #380, #61, .T. ) ;
#400 = EDGE_CURVE ( 'NONE', #322, #376, #79, .T. ) ;
#401 = ORIENTED_EDGE ( 'NONE', *, *, #130, .T. ) ;
#402 = DIRECTION ( 'NONE',  ( -1.000000000000000000, 0.000000000000000000, 0.000000000000000000 ) ) ;
#403 = EDGE_LOOP ( 'NONE', ( #249, #114, #229, #203 ) ) ;
#404 = SURFACE_STYLE_USAGE ( .BOTH. , #214 ) ;
#405 = DIRECTION ( 'NONE',  ( -0.7745307686231798217, -0.6325362348956667935, 0.000000000000000000 ) ) ;
#406 = VECTOR ( 'NONE', #413, 1000.000000000000000 ) ;
#407 = CARTESIAN_POINT ( 'NONE',  ( -24.57349468916726920, 276.6387431398043191, -7.500000000000000000 ) ) ;
#408 = ORIENTED_EDGE ( 'NONE', *, *, #368, .F. ) ;
#409 = AXIS2_PLACEMENT_3D ( 'NONE', #169, #133, #263 ) ;
#410 = DIRECTION ( 'NONE',  ( -1.000000000000000000, 0.000000000000000000, 0.000000000000000000 ) ) ;
#411 = ADVANCED_FACE ( 'NONE', ( #41 ), #217, .F. ) ;
#412 = VECTOR ( 'NONE', #159, 1000.000000000000000 ) ;
#413 = DIRECTION ( 'NONE',  ( -0.000000000000000000, -0.000000000000000000, -1.000000000000000000 ) ) ;
#414 = LINE ( 'NONE', #190, #34 ) ;
#415 = ORIENTED_EDGE ( 'NONE', *, *, #37, .T. ) ;
#416 = CARTESIAN_POINT ( 'NONE',  ( -27.50000000000000711, 134.7538069655288098, -7.500000000000000000 ) ) ;
ENDSEC;
END-ISO-10303-21;
