ISO-10303-21;
HEADER;
FILE_DESCRIPTION(('CATIA V5 STEP','CAx-IF Rec.Pracs.--- Model Styling and Organization---1.4--- 2014-01-23'),'2;1');

FILE_NAME('E:\\LTSCAL0\\_PER_SO___\\CALE_20240308.stp','2024-03-08T07:21:33+00:00',('%USERNAME%'),('Liebherr Aerospace Toulouse S.A.S.'),'CATIA Version 5-6 Release 2018 SP6 HF18','CATIA V5 STEP AP214 Edition 3','none');

FILE_SCHEMA(('AUTOMOTIVE_DESIGN { 1 0 10303 214 3 1 1 1 }'));

ENDSEC;
DATA;
#5=PRODUCT('CALE','','',(#2)) ;
#2=PRODUCT_CONTEXT(' ',#1,'mechanical') ;
#1=APPLICATION_CONTEXT('automotive design') ;
#10=PRODUCT_DEFINITION('',' ',#6,#3) ;
#3=PRODUCT_DEFINITION_CONTEXT('part definition',#1,' ') ;
#11=PRODUCT_DEFINITION_SHAPE(' ',' ',#10) ;
#462=MECHANICAL_DESIGN_GEOMETRIC_PRESENTATION_REPRESENTATION(' ',(#29),#16) ;
#19=SHAPE_REPRESENTATION(' ',(#18),#16) ;
#18=AXIS2_PLACEMENT_3D(' ',#17,$,$) ;
#35=AXIS2_PLACEMENT_3D('Torus Axis2P3D',#32,#33,#34) ;
#39=AXIS2_PLACEMENT_3D('Circle Axis2P3D',#37,#38,$) ;
#48=AXIS2_PLACEMENT_3D('Circle Axis2P3D',#46,#47,$) ;
#55=AXIS2_PLACEMENT_3D('Circle Axis2P3D',#53,#54,$) ;
#62=AXIS2_PLACEMENT_3D('Circle Axis2P3D',#60,#61,$) ;
#74=AXIS2_PLACEMENT_3D('Circle Axis2P3D',#72,#73,$) ;
#79=AXIS2_PLACEMENT_3D('Circle Axis2P3D',#77,#78,$) ;
#92=AXIS2_PLACEMENT_3D('Cylinder Axis2P3D',#89,#90,#91) ;
#103=AXIS2_PLACEMENT_3D('Circle Axis2P3D',#101,#102,$) ;
#122=AXIS2_PLACEMENT_3D('Circle Axis2P3D',#120,#121,$) ;
#135=AXIS2_PLACEMENT_3D('Cone Axis2P3D',#132,#133,#134) ;
#146=AXIS2_PLACEMENT_3D('Circle Axis2P3D',#144,#145,$) ;
#165=AXIS2_PLACEMENT_3D('Circle Axis2P3D',#163,#164,$) ;
#178=AXIS2_PLACEMENT_3D('Cylinder Axis2P3D',#175,#176,#177) ;
#182=AXIS2_PLACEMENT_3D('Circle Axis2P3D',#180,#181,$) ;
#198=AXIS2_PLACEMENT_3D('Circle Axis2P3D',#196,#197,$) ;
#217=AXIS2_PLACEMENT_3D('Circle Axis2P3D',#215,#216,$) ;
#222=AXIS2_PLACEMENT_3D('Circle Axis2P3D',#220,#221,$) ;
#235=AXIS2_PLACEMENT_3D('Cone Axis2P3D',#232,#233,#234) ;
#246=AXIS2_PLACEMENT_3D('Circle Axis2P3D',#244,#245,$) ;
#265=AXIS2_PLACEMENT_3D('Circle Axis2P3D',#263,#264,$) ;
#278=AXIS2_PLACEMENT_3D('Cylinder Axis2P3D',#275,#276,#277) ;
#289=AXIS2_PLACEMENT_3D('Circle Axis2P3D',#287,#288,$) ;
#308=AXIS2_PLACEMENT_3D('Circle Axis2P3D',#306,#307,$) ;
#321=AXIS2_PLACEMENT_3D('Torus Axis2P3D',#318,#319,#320) ;
#325=AXIS2_PLACEMENT_3D('Circle Axis2P3D',#323,#324,$) ;
#332=AXIS2_PLACEMENT_3D('Circle Axis2P3D',#330,#331,$) ;
#339=AXIS2_PLACEMENT_3D('Circle Axis2P3D',#337,#338,$) ;
#351=AXIS2_PLACEMENT_3D('Circle Axis2P3D',#349,#350,$) ;
#364=AXIS2_PLACEMENT_3D('Cylinder Axis2P3D',#361,#362,#363) ;
#368=AXIS2_PLACEMENT_3D('Circle Axis2P3D',#366,#367,$) ;
#384=AXIS2_PLACEMENT_3D('Circle Axis2P3D',#382,#383,$) ;
#403=AXIS2_PLACEMENT_3D('Circle Axis2P3D',#401,#402,$) ;
#408=AXIS2_PLACEMENT_3D('Circle Axis2P3D',#406,#407,$) ;
#421=AXIS2_PLACEMENT_3D('Plane Axis2P3D',#418,#419,#420) ;
#435=AXIS2_PLACEMENT_3D('Plane Axis2P3D',#432,#433,#434) ;
#449=AXIS2_PLACEMENT_3D('Plane Axis2P3D',#446,#447,#448) ;
#17=CARTESIAN_POINT(' ',(0.,0.,0.)) ;
#32=CARTESIAN_POINT('Axis2P3D Location',(0.,22.,0.)) ;
#37=CARTESIAN_POINT('Axis2P3D Location',(0.,14.,0.)) ;
#41=CARTESIAN_POINT('Vertex',(53.,14.,0.)) ;
#43=CARTESIAN_POINT('Vertex',(-53.,14.,6.49062803548E-015)) ;
#46=CARTESIAN_POINT('Axis2P3D Location',(53.,22.,0.)) ;
#50=CARTESIAN_POINT('Vertex',(45.,22.,0.)) ;
#53=CARTESIAN_POINT('Axis2P3D Location',(0.,22.,0.)) ;
#57=CARTESIAN_POINT('Vertex',(-45.,22.,5.51091059616E-015)) ;
#60=CARTESIAN_POINT('Axis2P3D Location',(-53.,22.,6.49062803548E-015)) ;
#72=CARTESIAN_POINT('Axis2P3D Location',(0.,14.,0.)) ;
#77=CARTESIAN_POINT('Axis2P3D Location',(0.,22.,0.)) ;
#89=CARTESIAN_POINT('Axis2P3D Location',(0.,13.0000000001,0.)) ;
#94=CARTESIAN_POINT('Line Origine',(45.,23.75,0.)) ;
#98=CARTESIAN_POINT('Vertex',(45.,25.5,0.)) ;
#101=CARTESIAN_POINT('Axis2P3D Location',(0.,25.5,0.)) ;
#105=CARTESIAN_POINT('Vertex',(-45.,25.5,5.51091059616E-015)) ;
#108=CARTESIAN_POINT('Line Origine',(-45.,23.75,5.51091059616E-015)) ;
#120=CARTESIAN_POINT('Axis2P3D Location',(0.,25.5,0.)) ;
#132=CARTESIAN_POINT('Axis2P3D Location',(0.,26.,0.)) ;
#137=CARTESIAN_POINT('Line Origine',(44.75,25.75,0.)) ;
#141=CARTESIAN_POINT('Vertex',(44.5,26.,0.)) ;
#144=CARTESIAN_POINT('Axis2P3D Location',(0.,26.,0.)) ;
#148=CARTESIAN_POINT('Vertex',(-44.5,26.,-1.43122915821E-014)) ;
#151=CARTESIAN_POINT('Line Origine',(-44.75,25.75,-1.43926977146E-014)) ;
#163=CARTESIAN_POINT('Axis2P3D Location',(0.,26.,0.)) ;
#175=CARTESIAN_POINT('Axis2P3D Location',(0.,13.0000000001,0.)) ;
#180=CARTESIAN_POINT('Axis2P3D Location',(0.,26.,0.)) ;
#184=CARTESIAN_POINT('Vertex',(43.,26.,0.)) ;
#186=CARTESIAN_POINT('Vertex',(-43.,26.,5.26598123633E-015)) ;
#189=CARTESIAN_POINT('Line Origine',(43.,22.5490381057,0.)) ;
#193=CARTESIAN_POINT('Vertex',(43.,19.0980762114,0.)) ;
#196=CARTESIAN_POINT('Axis2P3D Location',(0.,19.0980762114,0.)) ;
#200=CARTESIAN_POINT('Vertex',(-43.,19.0980762114,5.26598123633E-015)) ;
#203=CARTESIAN_POINT('Line Origine',(-43.,22.5490381057,5.26598123633E-015)) ;
#215=CARTESIAN_POINT('Axis2P3D Location',(0.,26.,0.)) ;
#220=CARTESIAN_POINT('Axis2P3D Location',(0.,19.0980762114,0.)) ;
#232=CARTESIAN_POINT('Axis2P3D Location',(0.,19.0980762114,0.)) ;
#237=CARTESIAN_POINT('Line Origine',(43.75,17.7990381057,0.)) ;
#241=CARTESIAN_POINT('Vertex',(44.5,16.5,0.)) ;
#244=CARTESIAN_POINT('Axis2P3D Location',(0.,16.5,0.)) ;
#248=CARTESIAN_POINT('Vertex',(-44.5,16.5,2.52116480945E-014)) ;
#251=CARTESIAN_POINT('Line Origine',(-43.75,17.7990381057,2.47867326772E-014)) ;
#263=CARTESIAN_POINT('Axis2P3D Location',(0.,16.5,0.)) ;
#275=CARTESIAN_POINT('Axis2P3D Location',(0.,13.0000000001,0.)) ;
#280=CARTESIAN_POINT('Line Origine',(44.5,12.75,0.)) ;
#284=CARTESIAN_POINT('Vertex',(44.5,9.,0.)) ;
#287=CARTESIAN_POINT('Axis2P3D Location',(0.,9.,0.)) ;
#291=CARTESIAN_POINT('Vertex',(-44.5,9.,5.44967825621E-015)) ;
#294=CARTESIAN_POINT('Line Origine',(-44.5,12.75,5.44967825621E-015)) ;
#306=CARTESIAN_POINT('Axis2P3D Location',(0.,9.,0.)) ;
#318=CARTESIAN_POINT('Axis2P3D Location',(0.,9.,0.)) ;
#323=CARTESIAN_POINT('Axis2P3D Location',(53.5,9.,0.)) ;
#327=CARTESIAN_POINT('Vertex',(53.5,0.,0.)) ;
#330=CARTESIAN_POINT('Axis2P3D Location',(0.,0.,0.)) ;
#334=CARTESIAN_POINT('Vertex',(-53.5,0.,3.03106331024E-014)) ;
#337=CARTESIAN_POINT('Axis2P3D Location',(-53.5,9.,3.03106331024E-014)) ;
#349=CARTESIAN_POINT('Axis2P3D Location',(0.,0.,0.)) ;
#361=CARTESIAN_POINT('Axis2P3D Location',(0.,13.0000000001,0.)) ;
#366=CARTESIAN_POINT('Axis2P3D Location',(0.,0.,0.)) ;
#370=CARTESIAN_POINT('Vertex',(60.,0.,0.)) ;
#372=CARTESIAN_POINT('Vertex',(-60.,0.,3.39932333859E-014)) ;
#375=CARTESIAN_POINT('Line Origine',(60.,7.,0.)) ;
#379=CARTESIAN_POINT('Vertex',(60.,14.,0.)) ;
#382=CARTESIAN_POINT('Axis2P3D Location',(0.,14.,0.)) ;
#386=CARTESIAN_POINT('Vertex',(-60.,14.,3.39932333859E-014)) ;
#389=CARTESIAN_POINT('Line Origine',(-60.,7.,3.39932333859E-014)) ;
#401=CARTESIAN_POINT('Axis2P3D Location',(0.,0.,0.)) ;
#406=CARTESIAN_POINT('Axis2P3D Location',(0.,14.,0.)) ;
#418=CARTESIAN_POINT('Axis2P3D Location',(43.,26.,0.)) ;
#432=CARTESIAN_POINT('Axis2P3D Location',(60.,3.5527136788E-015,0.)) ;
#446=CARTESIAN_POINT('Axis2P3D Location',(53.,14.,0.)) ;
#33=DIRECTION('Axis2P3D Direction',(0.,-1.,0.)) ;
#34=DIRECTION('Axis2P3D XDirection',(1.,0.,0.)) ;
#38=DIRECTION('Axis2P3D Direction',(0.,-1.,0.)) ;
#47=DIRECTION('Axis2P3D Direction',(0.,0.,-1.)) ;
#54=DIRECTION('Axis2P3D Direction',(0.,-1.,0.)) ;
#61=DIRECTION('Axis2P3D Direction',(1.22464679915E-016,0.,1.)) ;
#73=DIRECTION('Axis2P3D Direction',(0.,-1.,0.)) ;
#78=DIRECTION('Axis2P3D Direction',(0.,-1.,0.)) ;
#90=DIRECTION('Axis2P3D Direction',(0.,-1.,0.)) ;
#91=DIRECTION('Axis2P3D XDirection',(1.,0.,0.)) ;
#95=DIRECTION('Vector Direction',(0.,-1.,0.)) ;
#102=DIRECTION('Axis2P3D Direction',(0.,-1.,0.)) ;
#109=DIRECTION('Vector Direction',(0.,-1.,0.)) ;
#121=DIRECTION('Axis2P3D Direction',(0.,-1.,0.)) ;
#133=DIRECTION('Axis2P3D Direction',(0.,-1.,0.)) ;
#134=DIRECTION('Axis2P3D XDirection',(1.,0.,0.)) ;
#138=DIRECTION('Vector Direction',(0.707106781187,-0.707106781187,0.)) ;
#145=DIRECTION('Axis2P3D Direction',(0.,-1.,0.)) ;
#152=DIRECTION('Vector Direction',(-0.707106781187,-0.707106781187,-2.27422886113E-016)) ;
#164=DIRECTION('Axis2P3D Direction',(0.,-1.,0.)) ;
#176=DIRECTION('Axis2P3D Direction',(0.,-1.,0.)) ;
#177=DIRECTION('Axis2P3D XDirection',(1.,0.,0.)) ;
#181=DIRECTION('Axis2P3D Direction',(0.,-1.,0.)) ;
#190=DIRECTION('Vector Direction',(0.,-1.,0.)) ;
#197=DIRECTION('Axis2P3D Direction',(0.,-1.,0.)) ;
#204=DIRECTION('Vector Direction',(0.,-1.,0.)) ;
#216=DIRECTION('Axis2P3D Direction',(0.,-1.,0.)) ;
#221=DIRECTION('Axis2P3D Direction',(0.,-1.,0.)) ;
#233=DIRECTION('Axis2P3D Direction',(0.,-1.,0.)) ;
#234=DIRECTION('Axis2P3D XDirection',(1.,0.,0.)) ;
#238=DIRECTION('Vector Direction',(0.5,-0.866025403784,0.)) ;
#245=DIRECTION('Axis2P3D Direction',(0.,-1.,0.)) ;
#252=DIRECTION('Vector Direction',(-0.5,-0.866025403784,2.83276944882E-016)) ;
#264=DIRECTION('Axis2P3D Direction',(0.,-1.,0.)) ;
#276=DIRECTION('Axis2P3D Direction',(0.,-1.,0.)) ;
#277=DIRECTION('Axis2P3D XDirection',(1.,0.,0.)) ;
#281=DIRECTION('Vector Direction',(0.,-1.,0.)) ;
#288=DIRECTION('Axis2P3D Direction',(0.,-1.,0.)) ;
#295=DIRECTION('Vector Direction',(0.,-1.,0.)) ;
#307=DIRECTION('Axis2P3D Direction',(0.,-1.,0.)) ;
#319=DIRECTION('Axis2P3D Direction',(0.,-1.,0.)) ;
#320=DIRECTION('Axis2P3D XDirection',(1.,0.,0.)) ;
#324=DIRECTION('Axis2P3D Direction',(0.,0.,-1.)) ;
#331=DIRECTION('Axis2P3D Direction',(0.,-1.,0.)) ;
#338=DIRECTION('Axis2P3D Direction',(5.66553889765E-016,0.,1.)) ;
#350=DIRECTION('Axis2P3D Direction',(0.,-1.,0.)) ;
#362=DIRECTION('Axis2P3D Direction',(0.,-1.,0.)) ;
#363=DIRECTION('Axis2P3D XDirection',(1.,0.,0.)) ;
#367=DIRECTION('Axis2P3D Direction',(0.,-1.,0.)) ;
#376=DIRECTION('Vector Direction',(0.,-1.,0.)) ;
#383=DIRECTION('Axis2P3D Direction',(0.,-1.,0.)) ;
#390=DIRECTION('Vector Direction',(0.,-1.,0.)) ;
#402=DIRECTION('Axis2P3D Direction',(0.,-1.,0.)) ;
#407=DIRECTION('Axis2P3D Direction',(0.,-1.,0.)) ;
#419=DIRECTION('Axis2P3D Direction',(0.,-1.,0.)) ;
#420=DIRECTION('Axis2P3D XDirection',(1.,0.,0.)) ;
#433=DIRECTION('Axis2P3D Direction',(0.,-1.,0.)) ;
#434=DIRECTION('Axis2P3D XDirection',(1.,0.,0.)) ;
#447=DIRECTION('Axis2P3D Direction',(0.,-1.,0.)) ;
#448=DIRECTION('Axis2P3D XDirection',(1.,0.,0.)) ;
#30=PRESENTATION_LAYER_ASSIGNMENT('50',' ',(#21)) ;
#8=PRODUCT_RELATED_PRODUCT_CATEGORY('part',$,(#5)) ;
#7=PRODUCT_CATEGORY('part','specification') ;
#29=STYLED_ITEM(' ',(#28),#21) ;
#28=PRESENTATION_STYLE_ASSIGNMENT((#27)) ;
#27=SURFACE_STYLE_USAGE(.BOTH.,#26) ;
#26=SURFACE_SIDE_STYLE(' ',(#25)) ;
#25=SURFACE_STYLE_FILL_AREA(#24) ;
#24=FILL_AREA_STYLE(' ',(#23)) ;
#23=FILL_AREA_STYLE_COLOUR(' ',#22) ;
#96=VECTOR('Line Direction',#95,1.) ;
#110=VECTOR('Line Direction',#109,1.) ;
#139=VECTOR('Line Direction',#138,1.) ;
#153=VECTOR('Line Direction',#152,1.) ;
#191=VECTOR('Line Direction',#190,1.) ;
#205=VECTOR('Line Direction',#204,1.) ;
#239=VECTOR('Line Direction',#238,1.) ;
#253=VECTOR('Line Direction',#252,1.) ;
#282=VECTOR('Line Direction',#281,1.) ;
#296=VECTOR('Line Direction',#295,1.) ;
#377=VECTOR('Line Direction',#376,1.) ;
#391=VECTOR('Line Direction',#390,1.) ;
#15=UNCERTAINTY_MEASURE_WITH_UNIT(LENGTH_MEASURE(0.005),#12,'distance_accuracy_value','CONFUSED CURVE UNCERTAINTY') ;
#461=SHAPE_REPRESENTATION_RELATIONSHIP(' ',' ',#19,#460) ;
#66=ORIENTED_EDGE('',*,*,#45,.F.) ;
#67=ORIENTED_EDGE('',*,*,#52,.T.) ;
#68=ORIENTED_EDGE('',*,*,#59,.T.) ;
#69=ORIENTED_EDGE('',*,*,#64,.F.) ;
#83=ORIENTED_EDGE('',*,*,#76,.F.) ;
#84=ORIENTED_EDGE('',*,*,#64,.T.) ;
#85=ORIENTED_EDGE('',*,*,#81,.T.) ;
#86=ORIENTED_EDGE('',*,*,#52,.F.) ;
#114=ORIENTED_EDGE('',*,*,#59,.F.) ;
#115=ORIENTED_EDGE('',*,*,#100,.T.) ;
#116=ORIENTED_EDGE('',*,*,#107,.T.) ;
#117=ORIENTED_EDGE('',*,*,#112,.F.) ;
#126=ORIENTED_EDGE('',*,*,#81,.F.) ;
#127=ORIENTED_EDGE('',*,*,#112,.T.) ;
#128=ORIENTED_EDGE('',*,*,#124,.T.) ;
#129=ORIENTED_EDGE('',*,*,#100,.F.) ;
#157=ORIENTED_EDGE('',*,*,#107,.F.) ;
#158=ORIENTED_EDGE('',*,*,#143,.T.) ;
#159=ORIENTED_EDGE('',*,*,#150,.T.) ;
#160=ORIENTED_EDGE('',*,*,#155,.F.) ;
#169=ORIENTED_EDGE('',*,*,#124,.F.) ;
#170=ORIENTED_EDGE('',*,*,#155,.T.) ;
#171=ORIENTED_EDGE('',*,*,#167,.T.) ;
#172=ORIENTED_EDGE('',*,*,#143,.F.) ;
#209=ORIENTED_EDGE('',*,*,#188,.F.) ;
#210=ORIENTED_EDGE('',*,*,#195,.T.) ;
#211=ORIENTED_EDGE('',*,*,#202,.T.) ;
#212=ORIENTED_EDGE('',*,*,#207,.F.) ;
#226=ORIENTED_EDGE('',*,*,#219,.F.) ;
#227=ORIENTED_EDGE('',*,*,#207,.T.) ;
#228=ORIENTED_EDGE('',*,*,#224,.T.) ;
#229=ORIENTED_EDGE('',*,*,#195,.F.) ;
#257=ORIENTED_EDGE('',*,*,#202,.F.) ;
#258=ORIENTED_EDGE('',*,*,#243,.T.) ;
#259=ORIENTED_EDGE('',*,*,#250,.T.) ;
#260=ORIENTED_EDGE('',*,*,#255,.F.) ;
#269=ORIENTED_EDGE('',*,*,#224,.F.) ;
#270=ORIENTED_EDGE('',*,*,#255,.T.) ;
#271=ORIENTED_EDGE('',*,*,#267,.T.) ;
#272=ORIENTED_EDGE('',*,*,#243,.F.) ;
#300=ORIENTED_EDGE('',*,*,#250,.F.) ;
#301=ORIENTED_EDGE('',*,*,#286,.T.) ;
#302=ORIENTED_EDGE('',*,*,#293,.T.) ;
#303=ORIENTED_EDGE('',*,*,#298,.F.) ;
#312=ORIENTED_EDGE('',*,*,#267,.F.) ;
#313=ORIENTED_EDGE('',*,*,#298,.T.) ;
#314=ORIENTED_EDGE('',*,*,#310,.T.) ;
#315=ORIENTED_EDGE('',*,*,#286,.F.) ;
#343=ORIENTED_EDGE('',*,*,#293,.F.) ;
#344=ORIENTED_EDGE('',*,*,#329,.T.) ;
#345=ORIENTED_EDGE('',*,*,#336,.T.) ;
#346=ORIENTED_EDGE('',*,*,#341,.F.) ;
#355=ORIENTED_EDGE('',*,*,#310,.F.) ;
#356=ORIENTED_EDGE('',*,*,#341,.T.) ;
#357=ORIENTED_EDGE('',*,*,#353,.T.) ;
#358=ORIENTED_EDGE('',*,*,#329,.F.) ;
#395=ORIENTED_EDGE('',*,*,#374,.F.) ;
#396=ORIENTED_EDGE('',*,*,#381,.T.) ;
#397=ORIENTED_EDGE('',*,*,#388,.T.) ;
#398=ORIENTED_EDGE('',*,*,#393,.F.) ;
#412=ORIENTED_EDGE('',*,*,#405,.F.) ;
#413=ORIENTED_EDGE('',*,*,#393,.T.) ;
#414=ORIENTED_EDGE('',*,*,#410,.T.) ;
#415=ORIENTED_EDGE('',*,*,#381,.F.) ;
#424=ORIENTED_EDGE('',*,*,#150,.F.) ;
#425=ORIENTED_EDGE('',*,*,#167,.F.) ;
#428=ORIENTED_EDGE('',*,*,#219,.T.) ;
#429=ORIENTED_EDGE('',*,*,#188,.T.) ;
#438=ORIENTED_EDGE('',*,*,#405,.T.) ;
#439=ORIENTED_EDGE('',*,*,#374,.T.) ;
#442=ORIENTED_EDGE('',*,*,#336,.F.) ;
#443=ORIENTED_EDGE('',*,*,#353,.F.) ;
#452=ORIENTED_EDGE('',*,*,#388,.F.) ;
#453=ORIENTED_EDGE('',*,*,#410,.F.) ;
#456=ORIENTED_EDGE('',*,*,#76,.T.) ;
#457=ORIENTED_EDGE('',*,*,#45,.T.) ;
#430=FACE_BOUND('',#427,.T.) ;
#444=FACE_BOUND('',#441,.T.) ;
#458=FACE_BOUND('',#455,.T.) ;
#31=CLOSED_SHELL('Closed Shell',(#71,#88,#119,#131,#162,#174,#214,#231,#262,#274,#305,#317,#348,#360,#400,#417,#431,#445,#459)) ;
#460=ADVANCED_BREP_SHAPE_REPRESENTATION('NONE',(#21),#16) ;
#71=ADVANCED_FACE('Corps principal',(#70),#36,.F.) ;
#88=ADVANCED_FACE('Corps principal',(#87),#36,.F.) ;
#119=ADVANCED_FACE('Corps principal',(#118),#93,.T.) ;
#131=ADVANCED_FACE('Corps principal',(#130),#93,.T.) ;
#162=ADVANCED_FACE('Corps principal',(#161),#136,.T.) ;
#174=ADVANCED_FACE('Corps principal',(#173),#136,.T.) ;
#214=ADVANCED_FACE('Corps principal',(#213),#179,.F.) ;
#231=ADVANCED_FACE('Corps principal',(#230),#179,.F.) ;
#262=ADVANCED_FACE('Corps principal',(#261),#236,.F.) ;
#274=ADVANCED_FACE('Corps principal',(#273),#236,.F.) ;
#305=ADVANCED_FACE('Corps principal',(#304),#279,.F.) ;
#317=ADVANCED_FACE('Corps principal',(#316),#279,.F.) ;
#348=ADVANCED_FACE('Corps principal',(#347),#322,.T.) ;
#360=ADVANCED_FACE('Corps principal',(#359),#322,.T.) ;
#400=ADVANCED_FACE('Corps principal',(#399),#365,.T.) ;
#417=ADVANCED_FACE('Corps principal',(#416),#365,.T.) ;
#431=ADVANCED_FACE('Corps principal',(#426,#430),#422,.F.) ;
#445=ADVANCED_FACE('Corps principal',(#440,#444),#436,.T.) ;
#459=ADVANCED_FACE('Corps principal',(#454,#458),#450,.F.) ;
#4=APPLICATION_PROTOCOL_DEFINITION('international standard','automotive_design',2010,#1) ;
#21=MANIFOLD_SOLID_BREP('Corps principal',#31) ;
#40=CIRCLE('generated circle',#39,53.) ;
#49=CIRCLE('generated circle',#48,8.) ;
#56=CIRCLE('generated circle',#55,45.) ;
#63=CIRCLE('generated circle',#62,8.) ;
#75=CIRCLE('generated circle',#74,53.) ;
#80=CIRCLE('generated circle',#79,45.) ;
#104=CIRCLE('generated circle',#103,45.) ;
#123=CIRCLE('generated circle',#122,45.) ;
#147=CIRCLE('generated circle',#146,44.5) ;
#166=CIRCLE('generated circle',#165,44.5) ;
#183=CIRCLE('generated circle',#182,43.) ;
#199=CIRCLE('generated circle',#198,43.) ;
#218=CIRCLE('generated circle',#217,43.) ;
#223=CIRCLE('generated circle',#222,43.) ;
#247=CIRCLE('generated circle',#246,44.5) ;
#266=CIRCLE('generated circle',#265,44.5) ;
#290=CIRCLE('generated circle',#289,44.5) ;
#309=CIRCLE('generated circle',#308,44.5) ;
#326=CIRCLE('generated circle',#325,9.) ;
#333=CIRCLE('generated circle',#332,53.5) ;
#340=CIRCLE('generated circle',#339,9.) ;
#352=CIRCLE('generated circle',#351,53.5) ;
#369=CIRCLE('generated circle',#368,60.) ;
#385=CIRCLE('generated circle',#384,60.) ;
#404=CIRCLE('generated circle',#403,60.) ;
#409=CIRCLE('generated circle',#408,60.) ;
#22=COLOUR_RGB('Colour',0.823529411765,0.823529411765,1.) ;
#136=CONICAL_SURFACE('Cone',#135,44.5,0.785398163397) ;
#236=CONICAL_SURFACE('Cone',#235,43.,0.523598775598) ;
#93=CYLINDRICAL_SURFACE('generated cylinder',#92,45.) ;
#179=CYLINDRICAL_SURFACE('generated cylinder',#178,43.) ;
#279=CYLINDRICAL_SURFACE('generated cylinder',#278,44.5) ;
#365=CYLINDRICAL_SURFACE('generated cylinder',#364,60.) ;
#36=TOROIDAL_SURFACE('homeo Torus',#35,53.,8.) ;
#322=TOROIDAL_SURFACE('homeo Torus',#321,53.5,9.) ;
#45=EDGE_CURVE('',#42,#44,#40,.T.) ;
#52=EDGE_CURVE('',#42,#51,#49,.T.) ;
#59=EDGE_CURVE('',#51,#58,#56,.T.) ;
#64=EDGE_CURVE('',#44,#58,#63,.T.) ;
#76=EDGE_CURVE('',#44,#42,#75,.T.) ;
#81=EDGE_CURVE('',#58,#51,#80,.T.) ;
#100=EDGE_CURVE('',#51,#99,#97,.F.) ;
#107=EDGE_CURVE('',#99,#106,#104,.T.) ;
#112=EDGE_CURVE('',#58,#106,#111,.F.) ;
#124=EDGE_CURVE('',#106,#99,#123,.T.) ;
#143=EDGE_CURVE('',#99,#142,#140,.F.) ;
#150=EDGE_CURVE('',#142,#149,#147,.T.) ;
#155=EDGE_CURVE('',#106,#149,#154,.F.) ;
#167=EDGE_CURVE('',#149,#142,#166,.T.) ;
#188=EDGE_CURVE('',#185,#187,#183,.T.) ;
#195=EDGE_CURVE('',#185,#194,#192,.T.) ;
#202=EDGE_CURVE('',#194,#201,#199,.T.) ;
#207=EDGE_CURVE('',#187,#201,#206,.T.) ;
#219=EDGE_CURVE('',#187,#185,#218,.T.) ;
#224=EDGE_CURVE('',#201,#194,#223,.T.) ;
#243=EDGE_CURVE('',#194,#242,#240,.T.) ;
#250=EDGE_CURVE('',#242,#249,#247,.T.) ;
#255=EDGE_CURVE('',#201,#249,#254,.T.) ;
#267=EDGE_CURVE('',#249,#242,#266,.T.) ;
#286=EDGE_CURVE('',#242,#285,#283,.T.) ;
#293=EDGE_CURVE('',#285,#292,#290,.T.) ;
#298=EDGE_CURVE('',#249,#292,#297,.T.) ;
#310=EDGE_CURVE('',#292,#285,#309,.T.) ;
#329=EDGE_CURVE('',#285,#328,#326,.F.) ;
#336=EDGE_CURVE('',#328,#335,#333,.T.) ;
#341=EDGE_CURVE('',#292,#335,#340,.F.) ;
#353=EDGE_CURVE('',#335,#328,#352,.T.) ;
#374=EDGE_CURVE('',#371,#373,#369,.T.) ;
#381=EDGE_CURVE('',#371,#380,#378,.F.) ;
#388=EDGE_CURVE('',#380,#387,#385,.T.) ;
#393=EDGE_CURVE('',#373,#387,#392,.F.) ;
#405=EDGE_CURVE('',#373,#371,#404,.T.) ;
#410=EDGE_CURVE('',#387,#380,#409,.T.) ;
#65=EDGE_LOOP('',(#66,#67,#68,#69)) ;
#82=EDGE_LOOP('',(#83,#84,#85,#86)) ;
#113=EDGE_LOOP('',(#114,#115,#116,#117)) ;
#125=EDGE_LOOP('',(#126,#127,#128,#129)) ;
#156=EDGE_LOOP('',(#157,#158,#159,#160)) ;
#168=EDGE_LOOP('',(#169,#170,#171,#172)) ;
#208=EDGE_LOOP('',(#209,#210,#211,#212)) ;
#225=EDGE_LOOP('',(#226,#227,#228,#229)) ;
#256=EDGE_LOOP('',(#257,#258,#259,#260)) ;
#268=EDGE_LOOP('',(#269,#270,#271,#272)) ;
#299=EDGE_LOOP('',(#300,#301,#302,#303)) ;
#311=EDGE_LOOP('',(#312,#313,#314,#315)) ;
#342=EDGE_LOOP('',(#343,#344,#345,#346)) ;
#354=EDGE_LOOP('',(#355,#356,#357,#358)) ;
#394=EDGE_LOOP('',(#395,#396,#397,#398)) ;
#411=EDGE_LOOP('',(#412,#413,#414,#415)) ;
#423=EDGE_LOOP('',(#424,#425)) ;
#427=EDGE_LOOP('',(#428,#429)) ;
#437=EDGE_LOOP('',(#438,#439)) ;
#441=EDGE_LOOP('',(#442,#443)) ;
#451=EDGE_LOOP('',(#452,#453)) ;
#455=EDGE_LOOP('',(#456,#457)) ;
#70=FACE_OUTER_BOUND('',#65,.T.) ;
#87=FACE_OUTER_BOUND('',#82,.T.) ;
#118=FACE_OUTER_BOUND('',#113,.T.) ;
#130=FACE_OUTER_BOUND('',#125,.T.) ;
#161=FACE_OUTER_BOUND('',#156,.T.) ;
#173=FACE_OUTER_BOUND('',#168,.T.) ;
#213=FACE_OUTER_BOUND('',#208,.T.) ;
#230=FACE_OUTER_BOUND('',#225,.T.) ;
#261=FACE_OUTER_BOUND('',#256,.T.) ;
#273=FACE_OUTER_BOUND('',#268,.T.) ;
#304=FACE_OUTER_BOUND('',#299,.T.) ;
#316=FACE_OUTER_BOUND('',#311,.T.) ;
#347=FACE_OUTER_BOUND('',#342,.T.) ;
#359=FACE_OUTER_BOUND('',#354,.T.) ;
#399=FACE_OUTER_BOUND('',#394,.T.) ;
#416=FACE_OUTER_BOUND('',#411,.T.) ;
#426=FACE_OUTER_BOUND('',#423,.T.) ;
#440=FACE_OUTER_BOUND('',#437,.T.) ;
#454=FACE_OUTER_BOUND('',#451,.T.) ;
#97=LINE('Line',#94,#96) ;
#111=LINE('Line',#108,#110) ;
#140=LINE('Line',#137,#139) ;
#154=LINE('Line',#151,#153) ;
#192=LINE('Line',#189,#191) ;
#206=LINE('Line',#203,#205) ;
#240=LINE('Line',#237,#239) ;
#254=LINE('Line',#251,#253) ;
#283=LINE('Line',#280,#282) ;
#297=LINE('Line',#294,#296) ;
#378=LINE('Line',#375,#377) ;
#392=LINE('Line',#389,#391) ;
#422=PLANE('',#421) ;
#436=PLANE('',#435) ;
#450=PLANE('',#449) ;
#9=PRODUCT_CATEGORY_RELATIONSHIP(' ',' ',#7,#8) ;
#6=PRODUCT_DEFINITION_FORMATION_WITH_SPECIFIED_SOURCE('',' ',#5,.NOT_KNOWN.) ;
#20=SHAPE_DEFINITION_REPRESENTATION(#11,#19) ;
#42=VERTEX_POINT('',#41) ;
#44=VERTEX_POINT('',#43) ;
#51=VERTEX_POINT('',#50) ;
#58=VERTEX_POINT('',#57) ;
#99=VERTEX_POINT('',#98) ;
#106=VERTEX_POINT('',#105) ;
#142=VERTEX_POINT('',#141) ;
#149=VERTEX_POINT('',#148) ;
#185=VERTEX_POINT('',#184) ;
#187=VERTEX_POINT('',#186) ;
#194=VERTEX_POINT('',#193) ;
#201=VERTEX_POINT('',#200) ;
#242=VERTEX_POINT('',#241) ;
#249=VERTEX_POINT('',#248) ;
#285=VERTEX_POINT('',#284) ;
#292=VERTEX_POINT('',#291) ;
#328=VERTEX_POINT('',#327) ;
#335=VERTEX_POINT('',#334) ;
#371=VERTEX_POINT('',#370) ;
#373=VERTEX_POINT('',#372) ;
#380=VERTEX_POINT('',#379) ;
#387=VERTEX_POINT('',#386) ;
#12=(LENGTH_UNIT()NAMED_UNIT(*)SI_UNIT(.MILLI.,.METRE.)) ;
#13=(NAMED_UNIT(*)PLANE_ANGLE_UNIT()SI_UNIT($,.RADIAN.)) ;
#14=(NAMED_UNIT(*)SI_UNIT($,.STERADIAN.)SOLID_ANGLE_UNIT()) ;
#16=(GEOMETRIC_REPRESENTATION_CONTEXT(3)GLOBAL_UNCERTAINTY_ASSIGNED_CONTEXT((#15))GLOBAL_UNIT_ASSIGNED_CONTEXT((#12,#13,#14))REPRESENTATION_CONTEXT(' ',' ')) ;
ENDSEC;
END-ISO-10303-21;
