ISO-10303-21;
HEADER;
FILE_DESCRIPTION (( 'STEP AP214' ),
    '1' );
FILE_NAME ('RR24003.STEP',
    '2024-03-04T19:23:30',
    ( '' ),
    ( '' ),
    'SwSTEP 2.0',
    'SolidWorks 2021',
    '' );
FILE_SCHEMA (( 'AUTOMOTIVE_DESIGN' ));
ENDSEC;

DATA;
#1 = DIRECTION ( 'NONE',  ( -0.000000000000000000, 1.000000000000000000, -0.000000000000000000 ) ) ;
#2 = EDGE_CURVE ( 'NONE', #40, #7, #4, .T. ) ;
#3 = COLOUR_RGB ( '',0.8666666666666666963, 0.8666666666666666963, 0.8901960784313724950 ) ;
#4 = CIRCLE ( 'NONE', #293, 15.59999999999999964 ) ;
#5 = EDGE_LOOP ( 'NONE', ( #202, #58, #130, #270 ) ) ;
#6 = DIRECTION ( 'NONE',  ( 0.000000000000000000, 1.000000000000000000, 0.000000000000000000 ) ) ;
#7 = VERTEX_POINT ( 'NONE', #99 ) ;
#8 = ADVANCED_FACE ( 'NONE', ( #95, #334 ), #171, .T. ) ;
#9 = DIRECTION ( 'NONE',  ( 0.000000000000000000, 1.000000000000000000, 0.000000000000000000 ) ) ;
#10 = ORIENTED_EDGE ( 'NONE', *, *, #183, .T. ) ;
#11 = CIRCLE ( 'NONE', #61, 15.59999999999999964 ) ;
#12 = PRESENTATION_LAYER_ASSIGNMENT (  '', '', ( #112 ) ) ;
#13 = DIRECTION ( 'NONE',  ( 0.000000000000000000, 0.000000000000000000, 1.000000000000000000 ) ) ;
#14 = SURFACE_STYLE_FILL_AREA ( #325 ) ;
#15 = PRESENTATION_STYLE_ASSIGNMENT (( #19 ) ) ;
#16 = CARTESIAN_POINT ( 'NONE',  ( 0.000000000000000000, 0.000000000000000000, 0.000000000000000000 ) ) ;
#17 = DIRECTION ( 'NONE',  ( 0.000000000000000000, 0.000000000000000000, 1.000000000000000000 ) ) ;
#18 = ORIENTED_EDGE ( 'NONE', *, *, #50, .T. ) ;
#19 = SURFACE_STYLE_USAGE ( .BOTH. , #72 ) ;
#20 = FACE_OUTER_BOUND ( 'NONE', #214, .T. ) ;
#21 = ORIENTED_EDGE ( 'NONE', *, *, #125, .T. ) ;
#22 =( LENGTH_UNIT ( ) NAMED_UNIT ( * ) SI_UNIT ( .MILLI., .METRE. ) );
#23 = ORIENTED_EDGE ( 'NONE', *, *, #2, .T. ) ;
#24 = DIRECTION ( 'NONE',  ( -0.000000000000000000, 1.000000000000000000, -0.000000000000000000 ) ) ;
#25 = EDGE_LOOP ( 'NONE', ( #312, #49, #185, #235 ) ) ;
#26 = CIRCLE ( 'NONE', #225, 15.88867513459480563 ) ;
#27 = CARTESIAN_POINT ( 'NONE',  ( 0.000000000000000000, -0.4999999999999902300, 0.000000000000000000 ) ) ;
#28 = VERTEX_POINT ( 'NONE', #302 ) ;
#29 = ADVANCED_FACE ( 'NONE', ( #20 ), #253, .T. ) ;
#30 = CARTESIAN_POINT ( 'NONE',  ( 0.000000000000000000, -7.000000000000000000, 17.50000000000000000 ) ) ;
#31 = CARTESIAN_POINT ( 'NONE',  ( 1.945801514627366867E-15, -2.081899558550500773E-16, -15.88867513459480563 ) ) ;
#32 = LINE ( 'NONE', #240, #97 ) ;
#33 = FACE_BOUND ( 'NONE', #226, .T. ) ;
#34 = AXIS2_PLACEMENT_3D ( 'NONE', #330, #88, #267 ) ;
#35 = DIRECTION ( 'NONE',  ( -0.000000000000000000, 1.000000000000000000, -0.000000000000000000 ) ) ;
#36 = AXIS2_PLACEMENT_3D ( 'NONE', #233, #1, #315 ) ;
#37 = EDGE_CURVE ( 'NONE', #90, #83, #120, .T. ) ;
#38 = EDGE_LOOP ( 'NONE', ( #247, #243, #135, #283 ) ) ;
#39 = DIRECTION ( 'NONE',  ( -0.000000000000000000, 1.000000000000000000, -0.000000000000000000 ) ) ;
#40 = VERTEX_POINT ( 'NONE', #64 ) ;
#41 = EDGE_CURVE ( 'NONE', #108, #83, #123, .T. ) ;
#42 =( NAMED_UNIT ( * ) PLANE_ANGLE_UNIT ( ) SI_UNIT ( $, .RADIAN. ) );
#43 = DIRECTION ( 'NONE',  ( -0.000000000000000000, 1.000000000000000000, -0.000000000000000000 ) ) ;
#44 = DIRECTION ( 'NONE',  ( 0.000000000000000000, 0.000000000000000000, 1.000000000000000000 ) ) ;
#45 = DIRECTION ( 'NONE',  ( 0.000000000000000000, 0.000000000000000000, 1.000000000000000000 ) ) ;
#46 = PRODUCT ( 'RR24003', 'RR24003', '', ( #200 ) ) ;
#47 = MECHANICAL_DESIGN_GEOMETRIC_PRESENTATION_REPRESENTATION (  '', ( #275 ), #331 ) ;
#48 = VECTOR ( 'NONE', #222, 1000.000000000000114 ) ;
#49 = ORIENTED_EDGE ( 'NONE', *, *, #115, .T. ) ;
#50 = EDGE_CURVE ( 'NONE', #83, #90, #26, .T. ) ;
#51 = ORIENTED_EDGE ( 'NONE', *, *, #343, .F. ) ;
#52 = CARTESIAN_POINT ( 'NONE',  ( 0.000000000000000000, -0.4999999999999902300, 0.000000000000000000 ) ) ;
#53 = EDGE_CURVE ( 'NONE', #108, #157, #143, .T. ) ;
#54 = CIRCLE ( 'NONE', #127, 17.50000000000000000 ) ;
#55 = FACE_OUTER_BOUND ( 'NONE', #76, .T. ) ;
#56 = DIRECTION ( 'NONE',  ( 0.000000000000000000, 0.000000000000000000, 1.000000000000000000 ) ) ;
#57 = SURFACE_SIDE_STYLE ('',( #14 ) ) ;
#58 = ORIENTED_EDGE ( 'NONE', *, *, #66, .T. ) ;
#59 = CYLINDRICAL_SURFACE ( 'NONE', #261, 17.50000000000000000 ) ;
#60 = CARTESIAN_POINT ( 'NONE',  ( 1.910449006669870914E-15, -0.4999999999999902300, -15.59999999999999964 ) ) ;
#61 = AXIS2_PLACEMENT_3D ( 'NONE', #299, #159, #271 ) ;
#62 = FACE_OUTER_BOUND ( 'NONE', #5, .T. ) ;
#63 = ADVANCED_FACE ( 'NONE', ( #68 ), #169, .T. ) ;
#64 = CARTESIAN_POINT ( 'NONE',  ( 0.000000000000000000, -7.000000000000000000, 15.59999999999999964 ) ) ;
#65 = DIRECTION ( 'NONE',  ( 0.000000000000000000, -0.000000000000000000, -1.000000000000000000 ) ) ;
#66 = EDGE_CURVE ( 'NONE', #7, #108, #328, .T. ) ;
#67 = AXIS2_PLACEMENT_3D ( 'NONE', #107, #320, #165 ) ;
#68 = FACE_OUTER_BOUND ( 'NONE', #326, .T. ) ;
#69 = COLOUR_RGB ( '',0.8666666666666666963, 0.8666666666666666963, 0.8901960784313724950 ) ;
#70 = CARTESIAN_POINT ( 'NONE',  ( 0.000000000000000000, -3.000000000000000444, 0.000000000000000000 ) ) ;
#71 = ORIENTED_EDGE ( 'NONE', *, *, #174, .T. ) ;
#72 = SURFACE_SIDE_STYLE ('',( #252 ) ) ;
#73 = VERTEX_POINT ( 'NONE', #160 ) ;
#74 = ORIENTED_EDGE ( 'NONE', *, *, #307, .F. ) ;
#75 = AXIS2_PLACEMENT_3D ( 'NONE', #188, #87, #278 ) ;
#76 = EDGE_LOOP ( 'NONE', ( #175, #181 ) ) ;
#77 = AXIS2_PLACEMENT_3D ( 'NONE', #262, #24, #128 ) ;
#78 = DIRECTION ( 'NONE',  ( -0.000000000000000000, 1.000000000000000000, -0.000000000000000000 ) ) ;
#79 = ORIENTED_EDGE ( 'NONE', *, *, #246, .T. ) ;
#80 = PLANE ( 'NONE',  #67 ) ;
#81 = DIRECTION ( 'NONE',  ( 0.000000000000000000, 0.000000000000000000, 1.000000000000000000 ) ) ;
#82 = CYLINDRICAL_SURFACE ( 'NONE', #75, 15.59999999999999964 ) ;
#83 = VERTEX_POINT ( 'NONE', #31 ) ;
#84 = UNCERTAINTY_MEASURE_WITH_UNIT (LENGTH_MEASURE( 1.000000000000000082E-05 ), #22, 'distance_accuracy_value', 'NONE');
#85 = ADVANCED_BREP_SHAPE_REPRESENTATION ( 'RR24003', ( #129, #173 ), #228 ) ;
#86 = CARTESIAN_POINT ( 'NONE',  ( 0.000000000000000000, -4.163799117101001545E-16, 0.000000000000000000 ) ) ;
#87 = DIRECTION ( 'NONE',  ( -0.000000000000000000, 1.000000000000000000, -0.000000000000000000 ) ) ;
#88 = DIRECTION ( 'NONE',  ( -0.000000000000000000, 1.000000000000000000, -0.000000000000000000 ) ) ;
#89 = CARTESIAN_POINT ( 'NONE',  ( 0.000000000000000000, -3.000000000000000444, 0.000000000000000000 ) ) ;
#90 = VERTEX_POINT ( 'NONE', #134 ) ;
#91 = APPLICATION_PROTOCOL_DEFINITION ( 'draft international standard', 'automotive_design', 1998, #152 ) ;
#92 = ADVANCED_FACE ( 'NONE', ( #110 ), #82, .F. ) ;
#93 = ORIENTED_EDGE ( 'NONE', *, *, #324, .F. ) ;
#94 =( NAMED_UNIT ( * ) SI_UNIT ( $, .STERADIAN. ) SOLID_ANGLE_UNIT ( ) );
#95 = FACE_BOUND ( 'NONE', #319, .T. ) ;
#96 = CARTESIAN_POINT ( 'NONE',  ( 1.910449006669870914E-15, -0.4999999999999902300, -15.59999999999999964 ) ) ;
#97 = VECTOR ( 'NONE', #301, 1000.000000000000000 ) ;
#98 = DIRECTION ( 'NONE',  ( 1.000000000000000000, 0.000000000000000000, 0.000000000000000000 ) ) ;
#99 = CARTESIAN_POINT ( 'NONE',  ( 1.910449006669870914E-15, -7.000000000000000000, -15.59999999999999964 ) ) ;
#100 = EDGE_CURVE ( 'NONE', #256, #308, #54, .T. ) ;
#101 = VERTEX_POINT ( 'NONE', #250 ) ;
#102 = ORIENTED_EDGE ( 'NONE', *, *, #246, .F. ) ;
#103 = CARTESIAN_POINT ( 'NONE',  ( 2.326828918379970970E-15, -3.000000000000000444, -19.00000000000000000 ) ) ;
#104 = CIRCLE ( 'NONE', #34, 15.59999999999999964 ) ;
#105 = LINE ( 'NONE', #136, #276 ) ;
#106 = EDGE_LOOP ( 'NONE', ( #318, #102, #132, #332 ) ) ;
#107 = CARTESIAN_POINT ( 'NONE',  ( -15.59999999999999964, -2.081899558550500773E-16, 0.000000000000000000 ) ) ;
#108 = VERTEX_POINT ( 'NONE', #60 ) ;
#109 = CARTESIAN_POINT ( 'NONE',  ( 2.143131898507868248E-15, 0.000000000000000000, -17.50000000000000000 ) ) ;
#110 = FACE_OUTER_BOUND ( 'NONE', #219, .T. ) ;
#111 = AXIS2_PLACEMENT_3D ( 'NONE', #70, #305, #335 ) ;
#112 = STYLED_ITEM ( 'NONE', ( #117 ), #129 ) ;
#113 = DIRECTION ( 'NONE',  ( 0.000000000000000000, 0.8660254037844392627, 0.4999999999999987232 ) ) ;
#114 = FACE_OUTER_BOUND ( 'NONE', #258, .T. ) ;
#115 = EDGE_CURVE ( 'NONE', #154, #179, #310, .T. ) ;
#116 = CARTESIAN_POINT ( 'NONE',  ( 0.000000000000000000, 0.000000000000000000, 0.000000000000000000 ) ) ;
#117 = PRESENTATION_STYLE_ASSIGNMENT (( #163 ) ) ;
#118 =( NAMED_UNIT ( * ) PLANE_ANGLE_UNIT ( ) SI_UNIT ( $, .RADIAN. ) );
#119 = ADVANCED_FACE ( 'NONE', ( #196, #114 ), #303, .T. ) ;
#120 = CIRCLE ( 'NONE', #229, 15.88867513459480563 ) ;
#121 = DIRECTION ( 'NONE',  ( 0.000000000000000000, -1.000000000000000000, 0.000000000000000000 ) ) ;
#122 =( NAMED_UNIT ( * ) SI_UNIT ( $, .STERADIAN. ) SOLID_ANGLE_UNIT ( ) );
#123 = LINE ( 'NONE', #96, #48 ) ;
#124 = ORIENTED_EDGE ( 'NONE', *, *, #343, .T. ) ;
#125 = EDGE_CURVE ( 'NONE', #40, #157, #32, .T. ) ;
#126 = VECTOR ( 'NONE', #113, 1000.000000000000114 ) ;
#127 = AXIS2_PLACEMENT_3D ( 'NONE', #245, #39, #17 ) ;
#128 = DIRECTION ( 'NONE',  ( 0.000000000000000000, 0.000000000000000000, 1.000000000000000000 ) ) ;
#129 = MANIFOLD_SOLID_BREP ( 'Chanfrein1', #206 ) ;
#130 = ORIENTED_EDGE ( 'NONE', *, *, #53, .T. ) ;
#131 = DIRECTION ( 'NONE',  ( 0.000000000000000000, 0.000000000000000000, 1.000000000000000000 ) ) ;
#132 = ORIENTED_EDGE ( 'NONE', *, *, #207, .T. ) ;
#133 = CARTESIAN_POINT ( 'NONE',  ( 0.000000000000000000, -3.000000000000000444, 0.000000000000000000 ) ) ;
#134 = CARTESIAN_POINT ( 'NONE',  ( 0.000000000000000000, -2.081899558550500773E-16, 15.88867513459480563 ) ) ;
#135 = ORIENTED_EDGE ( 'NONE', *, *, #236, .T. ) ;
#136 = CARTESIAN_POINT ( 'NONE',  ( 2.326828918379970970E-15, 0.000000000000000000, -19.00000000000000000 ) ) ;
#137 = ORIENTED_EDGE ( 'NONE', *, *, #53, .F. ) ;
#138 = CIRCLE ( 'NONE', #300, 17.50000000000000000 ) ;
#139 = CARTESIAN_POINT ( 'NONE',  ( 0.000000000000000000, -4.163799117101001545E-16, 0.000000000000000000 ) ) ;
#140 = DIRECTION ( 'NONE',  ( 0.000000000000000000, -1.000000000000000000, 0.000000000000000000 ) ) ;
#141 = CARTESIAN_POINT ( 'NONE',  ( 0.000000000000000000, -7.000000000000000000, 0.000000000000000000 ) ) ;
#142 = ORIENTED_EDGE ( 'NONE', *, *, #2, .F. ) ;
#143 = CIRCLE ( 'NONE', #221, 15.59999999999999964 ) ;
#144 = DIRECTION ( 'NONE',  ( 0.000000000000000000, 0.000000000000000000, 1.000000000000000000 ) ) ;
#145 = CARTESIAN_POINT ( 'NONE',  ( 0.000000000000000000, -7.000000000000000000, 0.000000000000000000 ) ) ;
#146 = DIRECTION ( 'NONE',  ( 0.000000000000000000, 0.000000000000000000, 1.000000000000000000 ) ) ;
#147 = CIRCLE ( 'NONE', #280, 17.50000000000000000 ) ;
#148 = ORIENTED_EDGE ( 'NONE', *, *, #66, .F. ) ;
#149 = AXIS2_PLACEMENT_3D ( 'NONE', #341, #201, #65 ) ;
#150 = UNCERTAINTY_MEASURE_WITH_UNIT (LENGTH_MEASURE( 1.000000000000000082E-05 ), #172, 'distance_accuracy_value', 'NONE');
#151 = VERTEX_POINT ( 'NONE', #191 ) ;
#152 = APPLICATION_CONTEXT ( 'automotive_design' ) ;
#153 = ADVANCED_FACE ( 'NONE', ( #209 ), #231, .T. ) ;
#154 = VERTEX_POINT ( 'NONE', #103 ) ;
#155 = APPLICATION_CONTEXT ( 'automotive_design' ) ;
#156 = EDGE_CURVE ( 'NONE', #73, #151, #177, .T. ) ;
#157 = VERTEX_POINT ( 'NONE', #232 ) ;
#158 = CARTESIAN_POINT ( 'NONE',  ( 0.000000000000000000, 0.000000000000000000, 17.50000000000000000 ) ) ;
#159 = DIRECTION ( 'NONE',  ( 0.000000000000000000, 1.000000000000000000, 0.000000000000000000 ) ) ;
#160 = CARTESIAN_POINT ( 'NONE',  ( 0.000000000000000000, -3.000000000000000444, 17.50000000000000000 ) ) ;
#161 = EDGE_CURVE ( 'NONE', #154, #101, #105, .T. ) ;
#162 = CYLINDRICAL_SURFACE ( 'NONE', #286, 15.59999999999999964 ) ;
#163 = SURFACE_STYLE_USAGE ( .BOTH. , #57 ) ;
#164 = ORIENTED_EDGE ( 'NONE', *, *, #236, .F. ) ;
#165 = DIRECTION ( 'NONE',  ( 0.000000000000000000, 0.000000000000000000, 1.000000000000000000 ) ) ;
#166 = AXIS2_PLACEMENT_3D ( 'NONE', #27, #6, #81 ) ;
#167 = CARTESIAN_POINT ( 'NONE',  ( 0.000000000000000000, -2.081899558550500773E-16, 0.000000000000000000 ) ) ;
#168 = PRODUCT_DEFINITION_CONTEXT ( 'detailed design', #152, 'design' ) ;
#169 = CYLINDRICAL_SURFACE ( 'NONE', #234, 19.00000000000000000 ) ;
#170 = ADVANCED_FACE ( 'NONE', ( #295 ), #59, .T. ) ;
#171 = PLANE ( 'NONE',  #149 ) ;
#172 =( LENGTH_UNIT ( ) NAMED_UNIT ( * ) SI_UNIT ( .MILLI., .METRE. ) );
#173 = AXIS2_PLACEMENT_3D ( 'NONE', #220, #339, #98 ) ;
#174 = EDGE_CURVE ( 'NONE', #256, #151, #208, .T. ) ;
#175 = ORIENTED_EDGE ( 'NONE', *, *, #178, .T. ) ;
#176 =( NAMED_UNIT ( * ) SI_UNIT ( $, .STERADIAN. ) SOLID_ANGLE_UNIT ( ) );
#177 = CIRCLE ( 'NONE', #77, 17.50000000000000000 ) ;
#178 = EDGE_CURVE ( 'NONE', #28, #101, #344, .T. ) ;
#179 = VERTEX_POINT ( 'NONE', #211 ) ;
#180 = FACE_OUTER_BOUND ( 'NONE', #106, .T. ) ;
#181 = ORIENTED_EDGE ( 'NONE', *, *, #223, .T. ) ;
#182 = LINE ( 'NONE', #244, #126 ) ;
#183 = EDGE_CURVE ( 'NONE', #7, #40, #104, .T. ) ;
#184 = VECTOR ( 'NONE', #35, 1000.000000000000000 ) ;
#185 = ORIENTED_EDGE ( 'NONE', *, *, #307, .T. ) ;
#186 = VECTOR ( 'NONE', #272, 1000.000000000000000 ) ;
#187 = LINE ( 'NONE', #273, #184 ) ;
#188 = CARTESIAN_POINT ( 'NONE',  ( 0.000000000000000000, 0.000000000000000000, 0.000000000000000000 ) ) ;
#189 = ORIENTED_EDGE ( 'NONE', *, *, #324, .T. ) ;
#190 = DIRECTION ( 'NONE',  ( 0.000000000000000000, 0.000000000000000000, 1.000000000000000000 ) ) ;
#191 = CARTESIAN_POINT ( 'NONE',  ( 2.143131898507868248E-15, -3.000000000000000444, -17.50000000000000000 ) ) ;
#192 = DIRECTION ( 'NONE',  ( -0.000000000000000000, 1.000000000000000000, -0.000000000000000000 ) ) ;
#193 = CARTESIAN_POINT ( 'NONE',  ( -17.50000000000000000, -7.000000000000000000, 0.000000000000000000 ) ) ;
#194 = PRESENTATION_LAYER_ASSIGNMENT (  '', '', ( #275 ) ) ;
#195 = AXIS2_PLACEMENT_3D ( 'NONE', #16, #43, #45 ) ;
#196 = FACE_BOUND ( 'NONE', #313, .T. ) ;
#197 = DIRECTION ( 'NONE',  ( 0.000000000000000000, 1.000000000000000000, 0.000000000000000000 ) ) ;
#198 = FILL_AREA_STYLE_COLOUR ( '', #3 ) ;
#199 = VECTOR ( 'NONE', #237, 1000.000000000000000 ) ;
#200 = PRODUCT_CONTEXT ( 'NONE', #155, 'mechanical' ) ;
#201 = DIRECTION ( 'NONE',  ( 0.000000000000000000, -1.000000000000000000, 0.000000000000000000 ) ) ;
#202 = ORIENTED_EDGE ( 'NONE', *, *, #183, .F. ) ;
#203 =( NAMED_UNIT ( * ) PLANE_ANGLE_UNIT ( ) SI_UNIT ( $, .RADIAN. ) );
#204 = PRODUCT_RELATED_PRODUCT_CATEGORY ( 'part', '', ( #46 ) ) ;
#205 = CONICAL_SURFACE ( 'NONE', #166, 15.59999999999999964, 0.5235987755982974834 ) ;
#206 = CLOSED_SHELL ( 'NONE', ( #218, #29, #63, #257, #92, #285, #153, #8, #170, #119, #277 ) ) ;
#207 = EDGE_CURVE ( 'NONE', #157, #90, #182, .T. ) ;
#208 = LINE ( 'NONE', #109, #317 ) ;
#209 = FACE_OUTER_BOUND ( 'NONE', #25, .T. ) ;
#210 = EDGE_LOOP ( 'NONE', ( #93, #241 ) ) ;
#211 = CARTESIAN_POINT ( 'NONE',  ( 0.000000000000000000, -3.000000000000000444, 19.00000000000000000 ) ) ;
#212 = CONICAL_SURFACE ( 'NONE', #287, 15.59999999999999964, 0.5235987755982974834 ) ;
#213 = DIRECTION ( 'NONE',  ( -0.000000000000000000, 1.000000000000000000, -0.000000000000000000 ) ) ;
#214 = EDGE_LOOP ( 'NONE', ( #124, #71, #266, #164 ) ) ;
#215 = AXIS2_PLACEMENT_3D ( 'NONE', #193, #140, #269 ) ;
#216 = DIRECTION ( 'NONE',  ( 0.000000000000000000, 0.000000000000000000, 1.000000000000000000 ) ) ;
#217 = DIRECTION ( 'NONE',  ( -0.000000000000000000, 1.000000000000000000, -0.000000000000000000 ) ) ;
#218 = ADVANCED_FACE ( 'NONE', ( #290 ), #212, .F. ) ;
#219 = EDGE_LOOP ( 'NONE', ( #148, #142, #21, #79 ) ) ;
#220 = CARTESIAN_POINT ( 'NONE',  ( 0.000000000000000000, 0.000000000000000000, 0.000000000000000000 ) ) ;
#221 = AXIS2_PLACEMENT_3D ( 'NONE', #251, #197, #304 ) ;
#222 = DIRECTION ( 'NONE',  ( 6.123233995736750012E-17, 0.8660254037844392627, -0.4999999999999987232 ) ) ;
#223 = EDGE_CURVE ( 'NONE', #101, #28, #291, .T. ) ;
#224 = DIRECTION ( 'NONE',  ( 0.000000000000000000, 0.000000000000000000, 1.000000000000000000 ) ) ;
#225 = AXIS2_PLACEMENT_3D ( 'NONE', #167, #279, #144 ) ;
#226 = EDGE_LOOP ( 'NONE', ( #342, #18 ) ) ;
#227 = ORIENTED_EDGE ( 'NONE', *, *, #100, .F. ) ;
#228 =( GEOMETRIC_REPRESENTATION_CONTEXT ( 3 ) GLOBAL_UNCERTAINTY_ASSIGNED_CONTEXT ( ( #329 ) ) GLOBAL_UNIT_ASSIGNED_CONTEXT ( ( #249, #118, #94 ) ) REPRESENTATION_CONTEXT ( 'NONE', 'WORKASPACE' ) );
#229 = AXIS2_PLACEMENT_3D ( 'NONE', #337, #121, #254 ) ;
#230 = ORIENTED_EDGE ( 'NONE', *, *, #37, .F. ) ;
#231 = CYLINDRICAL_SURFACE ( 'NONE', #36, 19.00000000000000000 ) ;
#232 = CARTESIAN_POINT ( 'NONE',  ( 0.000000000000000000, -0.4999999999999902300, 15.59999999999999964 ) ) ;
#233 = CARTESIAN_POINT ( 'NONE',  ( 0.000000000000000000, 0.000000000000000000, 0.000000000000000000 ) ) ;
#234 = AXIS2_PLACEMENT_3D ( 'NONE', #281, #274, #294 ) ;
#235 = ORIENTED_EDGE ( 'NONE', *, *, #223, .F. ) ;
#236 = EDGE_CURVE ( 'NONE', #308, #73, #322, .T. ) ;
#237 = DIRECTION ( 'NONE',  ( -0.000000000000000000, 1.000000000000000000, -0.000000000000000000 ) ) ;
#238 = ORIENTED_EDGE ( 'NONE', *, *, #41, .T. ) ;
#239 = DIRECTION ( 'NONE',  ( -0.000000000000000000, 1.000000000000000000, -0.000000000000000000 ) ) ;
#240 = CARTESIAN_POINT ( 'NONE',  ( 0.000000000000000000, 0.000000000000000000, 15.59999999999999964 ) ) ;
#241 = ORIENTED_EDGE ( 'NONE', *, *, #115, .F. ) ;
#242 = DIRECTION ( 'NONE',  ( -0.000000000000000000, 1.000000000000000000, -0.000000000000000000 ) ) ;
#243 = ORIENTED_EDGE ( 'NONE', *, *, #100, .T. ) ;
#244 = CARTESIAN_POINT ( 'NONE',  ( 0.000000000000000000, -0.4999999999999902300, 15.59999999999999964 ) ) ;
#245 = CARTESIAN_POINT ( 'NONE',  ( 0.000000000000000000, -7.000000000000000000, 0.000000000000000000 ) ) ;
#246 = EDGE_CURVE ( 'NONE', #157, #108, #11, .T. ) ;
#247 = ORIENTED_EDGE ( 'NONE', *, *, #174, .F. ) ;
#248 = FILL_AREA_STYLE_COLOUR ( '', #69 ) ;
#249 =( LENGTH_UNIT ( ) NAMED_UNIT ( * ) SI_UNIT ( .MILLI., .METRE. ) );
#250 = CARTESIAN_POINT ( 'NONE',  ( 2.326828918379970970E-15, -4.163799117101001545E-16, -19.00000000000000000 ) ) ;
#251 = CARTESIAN_POINT ( 'NONE',  ( 0.000000000000000000, -0.4999999999999902300, 0.000000000000000000 ) ) ;
#252 = SURFACE_STYLE_FILL_AREA ( #282 ) ;
#253 = CYLINDRICAL_SURFACE ( 'NONE', #195, 17.50000000000000000 ) ;
#254 = DIRECTION ( 'NONE',  ( 0.000000000000000000, 0.000000000000000000, 1.000000000000000000 ) ) ;
#255 = DIRECTION ( 'NONE',  ( -0.000000000000000000, 1.000000000000000000, -0.000000000000000000 ) ) ;
#256 = VERTEX_POINT ( 'NONE', #297 ) ;
#257 = ADVANCED_FACE ( 'NONE', ( #62 ), #162, .F. ) ;
#258 = EDGE_LOOP ( 'NONE', ( #51, #227 ) ) ;
#259 = CIRCLE ( 'NONE', #111, 19.00000000000000000 ) ;
#260 = PRODUCT_DEFINITION_SHAPE ( 'NONE', 'NONE',  #340 ) ;
#261 = AXIS2_PLACEMENT_3D ( 'NONE', #116, #242, #13 ) ;
#262 = CARTESIAN_POINT ( 'NONE',  ( 0.000000000000000000, -3.000000000000000444, 0.000000000000000000 ) ) ;
#263 = ORIENTED_EDGE ( 'NONE', *, *, #178, .F. ) ;
#264 = CARTESIAN_POINT ( 'NONE',  ( 0.000000000000000000, 0.000000000000000000, 0.000000000000000000 ) ) ;
#265 =( GEOMETRIC_REPRESENTATION_CONTEXT ( 3 ) GLOBAL_UNCERTAINTY_ASSIGNED_CONTEXT ( ( #84 ) ) GLOBAL_UNIT_ASSIGNED_CONTEXT ( ( #22, #203, #176 ) ) REPRESENTATION_CONTEXT ( 'NONE', 'WORKASPACE' ) );
#266 = ORIENTED_EDGE ( 'NONE', *, *, #156, .F. ) ;
#267 = DIRECTION ( 'NONE',  ( 0.000000000000000000, 0.000000000000000000, 1.000000000000000000 ) ) ;
#268 = CARTESIAN_POINT ( 'NONE',  ( 1.910449006669870914E-15, 0.000000000000000000, -15.59999999999999964 ) ) ;
#269 = DIRECTION ( 'NONE',  ( 0.000000000000000000, -0.000000000000000000, -1.000000000000000000 ) ) ;
#270 = ORIENTED_EDGE ( 'NONE', *, *, #125, .F. ) ;
#271 = DIRECTION ( 'NONE',  ( 0.000000000000000000, 0.000000000000000000, 1.000000000000000000 ) ) ;
#272 = DIRECTION ( 'NONE',  ( -0.000000000000000000, 1.000000000000000000, -0.000000000000000000 ) ) ;
#273 = CARTESIAN_POINT ( 'NONE',  ( 0.000000000000000000, 0.000000000000000000, 19.00000000000000000 ) ) ;
#274 = DIRECTION ( 'NONE',  ( -0.000000000000000000, 1.000000000000000000, -0.000000000000000000 ) ) ;
#275 = STYLED_ITEM ( 'NONE', ( #15 ), #85 ) ;
#276 = VECTOR ( 'NONE', #217, 1000.000000000000000 ) ;
#277 = ADVANCED_FACE ( 'NONE', ( #180 ), #205, .F. ) ;
#278 = DIRECTION ( 'NONE',  ( 0.000000000000000000, 0.000000000000000000, 1.000000000000000000 ) ) ;
#279 = DIRECTION ( 'NONE',  ( 0.000000000000000000, -1.000000000000000000, 0.000000000000000000 ) ) ;
#280 = AXIS2_PLACEMENT_3D ( 'NONE', #141, #255, #146 ) ;
#281 = CARTESIAN_POINT ( 'NONE',  ( 0.000000000000000000, 0.000000000000000000, 0.000000000000000000 ) ) ;
#282 = FILL_AREA_STYLE ('',( #198 ) ) ;
#283 = ORIENTED_EDGE ( 'NONE', *, *, #311, .F. ) ;
#284 = DIRECTION ( 'NONE',  ( -0.000000000000000000, 1.000000000000000000, -0.000000000000000000 ) ) ;
#285 = ADVANCED_FACE ( 'NONE', ( #33, #55 ), #80, .T. ) ;
#286 = AXIS2_PLACEMENT_3D ( 'NONE', #264, #78, #56 ) ;
#287 = AXIS2_PLACEMENT_3D ( 'NONE', #52, #9, #216 ) ;
#288 = MECHANICAL_DESIGN_GEOMETRIC_PRESENTATION_REPRESENTATION (  '', ( #112 ), #265 ) ;
#289 = ORIENTED_EDGE ( 'NONE', *, *, #156, .T. ) ;
#290 = FACE_OUTER_BOUND ( 'NONE', #336, .T. ) ;
#291 = CIRCLE ( 'NONE', #316, 19.00000000000000000 ) ;
#292 = DIRECTION ( 'NONE',  ( -0.000000000000000000, 1.000000000000000000, -0.000000000000000000 ) ) ;
#293 = AXIS2_PLACEMENT_3D ( 'NONE', #145, #284, #224 ) ;
#294 = DIRECTION ( 'NONE',  ( 0.000000000000000000, 0.000000000000000000, 1.000000000000000000 ) ) ;
#295 = FACE_OUTER_BOUND ( 'NONE', #38, .T. ) ;
#296 = ORIENTED_EDGE ( 'NONE', *, *, #161, .T. ) ;
#297 = CARTESIAN_POINT ( 'NONE',  ( 2.143131898507868248E-15, -7.000000000000000000, -17.50000000000000000 ) ) ;
#298 = DIRECTION ( 'NONE',  ( 0.000000000000000000, 0.000000000000000000, 1.000000000000000000 ) ) ;
#299 = CARTESIAN_POINT ( 'NONE',  ( 0.000000000000000000, -0.4999999999999902300, 0.000000000000000000 ) ) ;
#300 = AXIS2_PLACEMENT_3D ( 'NONE', #133, #239, #44 ) ;
#301 = DIRECTION ( 'NONE',  ( -0.000000000000000000, 1.000000000000000000, -0.000000000000000000 ) ) ;
#302 = CARTESIAN_POINT ( 'NONE',  ( 0.000000000000000000, -4.163799117101001545E-16, 19.00000000000000000 ) ) ;
#303 = PLANE ( 'NONE',  #215 ) ;
#304 = DIRECTION ( 'NONE',  ( 0.000000000000000000, 0.000000000000000000, 1.000000000000000000 ) ) ;
#305 = DIRECTION ( 'NONE',  ( -0.000000000000000000, 1.000000000000000000, -0.000000000000000000 ) ) ;
#306 = SHAPE_DEFINITION_REPRESENTATION ( #260, #85 ) ;
#307 = EDGE_CURVE ( 'NONE', #179, #28, #187, .T. ) ;
#308 = VERTEX_POINT ( 'NONE', #30 ) ;
#309 = ORIENTED_EDGE ( 'NONE', *, *, #311, .T. ) ;
#310 = CIRCLE ( 'NONE', #323, 19.00000000000000000 ) ;
#311 = EDGE_CURVE ( 'NONE', #151, #73, #138, .T. ) ;
#312 = ORIENTED_EDGE ( 'NONE', *, *, #161, .F. ) ;
#313 = EDGE_LOOP ( 'NONE', ( #23, #10 ) ) ;
#314 = ORIENTED_EDGE ( 'NONE', *, *, #207, .F. ) ;
#315 = DIRECTION ( 'NONE',  ( 0.000000000000000000, 0.000000000000000000, 1.000000000000000000 ) ) ;
#316 = AXIS2_PLACEMENT_3D ( 'NONE', #86, #192, #190 ) ;
#317 = VECTOR ( 'NONE', #327, 1000.000000000000000 ) ;
#318 = ORIENTED_EDGE ( 'NONE', *, *, #41, .F. ) ;
#319 = EDGE_LOOP ( 'NONE', ( #289, #309 ) ) ;
#320 = DIRECTION ( 'NONE',  ( -0.000000000000000000, 1.000000000000000000, 0.000000000000000000 ) ) ;
#321 = PRODUCT_DEFINITION_FORMATION_WITH_SPECIFIED_SOURCE ( 'ANY', '', #46, .NOT_KNOWN. ) ;
#322 = LINE ( 'NONE', #158, #199 ) ;
#323 = AXIS2_PLACEMENT_3D ( 'NONE', #89, #213, #298 ) ;
#324 = EDGE_CURVE ( 'NONE', #179, #154, #259, .T. ) ;
#325 = FILL_AREA_STYLE ('',( #248 ) ) ;
#326 = EDGE_LOOP ( 'NONE', ( #189, #296, #263, #74 ) ) ;
#327 = DIRECTION ( 'NONE',  ( -0.000000000000000000, 1.000000000000000000, -0.000000000000000000 ) ) ;
#328 = LINE ( 'NONE', #268, #186 ) ;
#329 = UNCERTAINTY_MEASURE_WITH_UNIT (LENGTH_MEASURE( 1.000000000000000082E-05 ), #249, 'distance_accuracy_value', 'NONE');
#330 = CARTESIAN_POINT ( 'NONE',  ( 0.000000000000000000, -7.000000000000000000, 0.000000000000000000 ) ) ;
#331 =( GEOMETRIC_REPRESENTATION_CONTEXT ( 3 ) GLOBAL_UNCERTAINTY_ASSIGNED_CONTEXT ( ( #150 ) ) GLOBAL_UNIT_ASSIGNED_CONTEXT ( ( #172, #42, #122 ) ) REPRESENTATION_CONTEXT ( 'NONE', 'WORKASPACE' ) );
#332 = ORIENTED_EDGE ( 'NONE', *, *, #50, .F. ) ;
#333 = APPLICATION_PROTOCOL_DEFINITION ( 'draft international standard', 'automotive_design', 1998, #155 ) ;
#334 = FACE_OUTER_BOUND ( 'NONE', #210, .T. ) ;
#335 = DIRECTION ( 'NONE',  ( 0.000000000000000000, 0.000000000000000000, 1.000000000000000000 ) ) ;
#336 = EDGE_LOOP ( 'NONE', ( #137, #238, #230, #314 ) ) ;
#337 = CARTESIAN_POINT ( 'NONE',  ( 0.000000000000000000, -2.081899558550500773E-16, 0.000000000000000000 ) ) ;
#338 = AXIS2_PLACEMENT_3D ( 'NONE', #139, #292, #131 ) ;
#339 = DIRECTION ( 'NONE',  ( 0.000000000000000000, 0.000000000000000000, 1.000000000000000000 ) ) ;
#340 = PRODUCT_DEFINITION ( 'UNKNOWN', '', #321, #168 ) ;
#341 = CARTESIAN_POINT ( 'NONE',  ( -19.00000000000000000, -3.000000000000000444, 0.000000000000000000 ) ) ;
#342 = ORIENTED_EDGE ( 'NONE', *, *, #37, .T. ) ;
#343 = EDGE_CURVE ( 'NONE', #308, #256, #147, .T. ) ;
#344 = CIRCLE ( 'NONE', #338, 19.00000000000000000 ) ;
ENDSEC;
END-ISO-10303-21;
