ISO-10303-21;
HEADER;
FILE_DESCRIPTION (( 'STEP AP214' ),
    '1' );
FILE_NAME ('entretoise barre anticouple.STEP',
    '2024-06-04T18:58:25',
    ( '' ),
    ( '' ),
    'SwSTEP 2.0',
    'SolidWorks 2023',
    '' );
FILE_SCHEMA (( 'AUTOMOTIVE_DESIGN' ));
ENDSEC;

DATA;
#1 = ORIENTED_EDGE ( 'NONE', *, *, #359, .F. ) ;
#2 = DIRECTION ( 'NONE',  ( 0.000000000000000000, 0.000000000000000000, 1.000000000000000000 ) ) ;
#3 = VERTEX_POINT ( 'NONE', #339 ) ;
#4 = AXIS2_PLACEMENT_3D ( 'NONE', #149, #270, #274 ) ;
#5 = DIRECTION ( 'NONE',  ( 0.000000000000000000, 0.000000000000000000, 1.000000000000000000 ) ) ;
#6 = ORIENTED_EDGE ( 'NONE', *, *, #290, .F. ) ;
#7 = FACE_OUTER_BOUND ( 'NONE', #145, .T. ) ;
#8 = VERTEX_POINT ( 'NONE', #361 ) ;
#9 = CYLINDRICAL_SURFACE ( 'NONE', #218, 8.500000000000000000 ) ;
#10 = EDGE_LOOP ( 'NONE', ( #178, #64 ) ) ;
#11 = CARTESIAN_POINT ( 'NONE',  ( 0.000000000000000000, 7.000000000000000000, -9.500000000000005329 ) ) ;
#12 = DIRECTION ( 'NONE',  ( -0.000000000000000000, -1.000000000000000000, -0.000000000000000000 ) ) ;
#13 = ADVANCED_FACE ( 'NONE', ( #254 ), #220, .T. ) ;
#14 = DIRECTION ( 'NONE',  ( -0.000000000000000000, 1.000000000000000000, -0.000000000000000000 ) ) ;
#15 = DIRECTION ( 'NONE',  ( 0.000000000000000000, -0.000000000000000000, 1.000000000000000000 ) ) ;
#16 = CIRCLE ( 'NONE', #234, 8.500000000000000000 ) ;
#17 = CARTESIAN_POINT ( 'NONE',  ( 0.000000000000000000, 7.000000000000000000, 0.000000000000000000 ) ) ;
#18 = EDGE_CURVE ( 'NONE', #180, #100, #367, .T. ) ;
#19 = DIRECTION ( 'NONE',  ( 0.000000000000000000, -0.000000000000000000, 1.000000000000000000 ) ) ;
#20 =( GEOMETRIC_REPRESENTATION_CONTEXT ( 3 ) GLOBAL_UNCERTAINTY_ASSIGNED_CONTEXT ( ( #59 ) ) GLOBAL_UNIT_ASSIGNED_CONTEXT ( ( #78, #314, #22 ) ) REPRESENTATION_CONTEXT ( 'NONE', 'WORKASPACE' ) );
#21 = CARTESIAN_POINT ( 'NONE',  ( 0.000000000000000000, 0.000000000000000000, 5.250000000000000000 ) ) ;
#22 =( NAMED_UNIT ( * ) SI_UNIT ( $, .STERADIAN. ) SOLID_ANGLE_UNIT ( ) );
#23 = ADVANCED_FACE ( 'NONE', ( #223 ), #249, .F. ) ;
#24 = DIRECTION ( 'NONE',  ( -0.000000000000000000, 1.000000000000000000, -0.000000000000000000 ) ) ;
#25 = ORIENTED_EDGE ( 'NONE', *, *, #46, .F. ) ;
#26 = PRODUCT_DEFINITION_CONTEXT ( 'detailed design', #199, 'design' ) ;
#27 = AXIS2_PLACEMENT_3D ( 'NONE', #236, #185, #322 ) ;
#28 = CLOSED_SHELL ( 'NONE', ( #332, #373, #23, #325, #224, #168, #366, #110, #228, #198, #201, #285, #13 ) ) ;
#29 = LINE ( 'NONE', #146, #232 ) ;
#30 = CARTESIAN_POINT ( 'NONE',  ( 0.000000000000000000, 4.000000000000000000, 0.000000000000000000 ) ) ;
#31 = VERTEX_POINT ( 'NONE', #340 ) ;
#32 = CARTESIAN_POINT ( 'NONE',  ( 0.000000000000000000, 4.000000000000000000, 8.500000000000000000 ) ) ;
#33 = VERTEX_POINT ( 'NONE', #309 ) ;
#34 = AXIS2_PLACEMENT_3D ( 'NONE', #116, #235, #203 ) ;
#35 = CARTESIAN_POINT ( 'NONE',  ( 0.000000000000000000, 0.000000000000000000, 0.000000000000000000 ) ) ;
#36 = ORIENTED_EDGE ( 'NONE', *, *, #341, .F. ) ;
#37 = ORIENTED_EDGE ( 'NONE', *, *, #50, .T. ) ;
#38 = CIRCLE ( 'NONE', #85, 10.50000000000000000 ) ;
#39 = STYLED_ITEM ( 'NONE', ( #52 ), #159 ) ;
#40 = ORIENTED_EDGE ( 'NONE', *, *, #258, .T. ) ;
#41 = AXIS2_PLACEMENT_3D ( 'NONE', #347, #208, #320 ) ;
#42 = LINE ( 'NONE', #200, #109 ) ;
#43 = EDGE_CURVE ( 'NONE', #8, #96, #276, .T. ) ;
#44 = DIRECTION ( 'NONE',  ( 8.659560562354910671E-17, -0.7071067811865493491, 0.7071067811865456854 ) ) ;
#45 = CARTESIAN_POINT ( 'NONE',  ( 0.000000000000000000, 0.9999999999999991118, -10.50000000000000000 ) ) ;
#46 = EDGE_CURVE ( 'NONE', #271, #360, #184, .T. ) ;
#47 = AXIS2_PLACEMENT_3D ( 'NONE', #30, #179, #5 ) ;
#48 = CARTESIAN_POINT ( 'NONE',  ( 1.040949779275250140E-15, 4.000000000000000000, -8.500000000000000000 ) ) ;
#49 = VECTOR ( 'NONE', #14, 1000.000000000000000 ) ;
#50 = EDGE_CURVE ( 'NONE', #3, #298, #16, .T. ) ;
#51 = CARTESIAN_POINT ( 'NONE',  ( 0.000000000000000000, 5.999999999999999112, 0.000000000000000000 ) ) ;
#52 = PRESENTATION_STYLE_ASSIGNMENT (( #114 ) ) ;
#53 = AXIS2_PLACEMENT_3D ( 'NONE', #122, #241, #2 ) ;
#54 = DIRECTION ( 'NONE',  ( 0.000000000000000000, 0.000000000000000000, 1.000000000000000000 ) ) ;
#55 = EDGE_CURVE ( 'NONE', #31, #125, #98, .T. ) ;
#56 = EDGE_CURVE ( 'NONE', #31, #127, #42, .T. ) ;
#57 = DIRECTION ( 'NONE',  ( 0.000000000000000000, 0.000000000000000000, -1.000000000000000000 ) ) ;
#58 = DIRECTION ( 'NONE',  ( 0.000000000000000000, 1.000000000000000000, 0.000000000000000000 ) ) ;
#59 = UNCERTAINTY_MEASURE_WITH_UNIT (LENGTH_MEASURE( 1.000000000000000082E-05 ), #78, 'distance_accuracy_value', 'NONE');
#60 =( LENGTH_UNIT ( ) NAMED_UNIT ( * ) SI_UNIT ( .MILLI., .METRE. ) );
#61 =( NAMED_UNIT ( * ) SI_UNIT ( $, .STERADIAN. ) SOLID_ANGLE_UNIT ( ) );
#62 = EDGE_LOOP ( 'NONE', ( #84, #1, #304, #117 ) ) ;
#63 = CARTESIAN_POINT ( 'NONE',  ( 1.285879139104720831E-15, 0.9999999999999991118, 10.50000000000000000 ) ) ;
#64 = ORIENTED_EDGE ( 'NONE', *, *, #187, .T. ) ;
#65 = DIRECTION ( 'NONE',  ( 0.000000000000000000, -1.000000000000000000, 0.000000000000000000 ) ) ;
#66 = ORIENTED_EDGE ( 'NONE', *, *, #55, .F. ) ;
#67 = CIRCLE ( 'NONE', #299, 9.500000000000005329 ) ;
#68 = DIRECTION ( 'NONE',  ( 0.000000000000000000, 0.000000000000000000, 1.000000000000000000 ) ) ;
#69 = ORIENTED_EDGE ( 'NONE', *, *, #359, .T. ) ;
#70 = EDGE_LOOP ( 'NONE', ( #377, #25, #155, #237 ) ) ;
#71 = PRODUCT ( 'entretoise barre anticouple', 'entretoise barre anticouple', '', ( #164 ) ) ;
#72 = DIRECTION ( 'NONE',  ( -0.000000000000000000, 1.000000000000000000, -0.000000000000000000 ) ) ;
#73 = AXIS2_PLACEMENT_3D ( 'NONE', #316, #58, #19 ) ;
#74 = DIRECTION ( 'NONE',  ( 0.000000000000000000, 1.000000000000000000, 0.000000000000000000 ) ) ;
#75 = ORIENTED_EDGE ( 'NONE', *, *, #50, .F. ) ;
#76 = CARTESIAN_POINT ( 'NONE',  ( 1.163414459189986274E-15, 7.000000000000000000, 9.500000000000005329 ) ) ;
#77 = CARTESIAN_POINT ( 'NONE',  ( 6.429395695523604153E-16, 0.000000000000000000, -5.250000000000000000 ) ) ;
#78 =( LENGTH_UNIT ( ) NAMED_UNIT ( * ) SI_UNIT ( .MILLI., .METRE. ) );
#79 = FILL_AREA_STYLE ('',( #169 ) ) ;
#80 = ORIENTED_EDGE ( 'NONE', *, *, #43, .T. ) ;
#81 = AXIS2_PLACEMENT_3D ( 'NONE', #137, #346, #141 ) ;
#82 = FACE_BOUND ( 'NONE', #355, .T. ) ;
#83 = CYLINDRICAL_SURFACE ( 'NONE', #34, 5.250000000000000000 ) ;
#84 = ORIENTED_EDGE ( 'NONE', *, *, #56, .F. ) ;
#85 = AXIS2_PLACEMENT_3D ( 'NONE', #51, #193, #310 ) ;
#86 = FACE_OUTER_BOUND ( 'NONE', #279, .T. ) ;
#87 = ADVANCED_BREP_SHAPE_REPRESENTATION ( 'entretoise barre anticouple', ( #159, #188 ), #207 ) ;
#88 = CONICAL_SURFACE ( 'NONE', #350, 10.50000000000000000, 0.7853981633974509435 ) ;
#89 = ORIENTED_EDGE ( 'NONE', *, *, #295, .F. ) ;
#90 = CARTESIAN_POINT ( 'NONE',  ( 0.000000000000000000, 0.9999999999999991118, 0.000000000000000000 ) ) ;
#91 = EDGE_LOOP ( 'NONE', ( #36, #75 ) ) ;
#92 = EDGE_CURVE ( 'NONE', #360, #318, #195, .T. ) ;
#93 = DIRECTION ( 'NONE',  ( 0.000000000000000000, 1.000000000000000000, 0.000000000000000000 ) ) ;
#94 = ORIENTED_EDGE ( 'NONE', *, *, #101, .T. ) ;
#95 = FACE_OUTER_BOUND ( 'NONE', #186, .T. ) ;
#96 = VERTEX_POINT ( 'NONE', #129 ) ;
#97 = AXIS2_PLACEMENT_3D ( 'NONE', #35, #265, #152 ) ;
#98 = CIRCLE ( 'NONE', #368, 9.499999999999996447 ) ;
#99 = DIRECTION ( 'NONE',  ( 0.000000000000000000, 1.000000000000000000, 0.000000000000000000 ) ) ;
#100 = VERTEX_POINT ( 'NONE', #313 ) ;
#101 = EDGE_CURVE ( 'NONE', #318, #33, #38, .T. ) ;
#102 = DIRECTION ( 'NONE',  ( 0.000000000000000000, 0.7071067811865456854, 0.7071067811865493491 ) ) ;
#103 = EDGE_CURVE ( 'NONE', #271, #33, #253, .T. ) ;
#104 = DIRECTION ( 'NONE',  ( -0.000000000000000000, 1.000000000000000000, -0.000000000000000000 ) ) ;
#105 = CIRCLE ( 'NONE', #170, 10.50000000000000000 ) ;
#106 = FACE_OUTER_BOUND ( 'NONE', #352, .T. ) ;
#107 = APPLICATION_CONTEXT ( 'automotive_design' ) ;
#108 = LINE ( 'NONE', #226, #337 ) ;
#109 = VECTOR ( 'NONE', #250, 1000.000000000000000 ) ;
#110 = ADVANCED_FACE ( 'NONE', ( #106, #225 ), #312, .F. ) ;
#111 = DIRECTION ( 'NONE',  ( 0.000000000000000000, 0.000000000000000000, 1.000000000000000000 ) ) ;
#112 = ORIENTED_EDGE ( 'NONE', *, *, #161, .F. ) ;
#113 = PRODUCT_DEFINITION ( 'UNKNOWN', '', #305, #26 ) ;
#114 = SURFACE_STYLE_USAGE ( .BOTH. , #233 ) ;
#115 = ORIENTED_EDGE ( 'NONE', *, *, #103, .F. ) ;
#116 = CARTESIAN_POINT ( 'NONE',  ( 0.000000000000000000, 0.000000000000000000, 0.000000000000000000 ) ) ;
#117 = ORIENTED_EDGE ( 'NONE', *, *, #266, .F. ) ;
#118 = DIRECTION ( 'NONE',  ( -0.000000000000000000, 1.000000000000000000, -0.000000000000000000 ) ) ;
#119 = CIRCLE ( 'NONE', #81, 8.500000000000000000 ) ;
#120 = ORIENTED_EDGE ( 'NONE', *, *, #55, .T. ) ;
#121 = PRODUCT_DEFINITION_SHAPE ( 'NONE', 'NONE',  #113 ) ;
#122 = CARTESIAN_POINT ( 'NONE',  ( 0.000000000000000000, 0.9999999999999991118, 0.000000000000000000 ) ) ;
#123 = ORIENTED_EDGE ( 'NONE', *, *, #293, .T. ) ;
#124 = FACE_BOUND ( 'NONE', #91, .T. ) ;
#125 = VERTEX_POINT ( 'NONE', #196 ) ;
#126 = CARTESIAN_POINT ( 'NONE',  ( 0.000000000000000000, 4.000000000000000000, 0.000000000000000000 ) ) ;
#127 = VERTEX_POINT ( 'NONE', #45 ) ;
#128 = SHAPE_DEFINITION_REPRESENTATION ( #121, #87 ) ;
#129 = CARTESIAN_POINT ( 'NONE',  ( 6.429395695523604153E-16, 4.000000000000000000, -5.250000000000000000 ) ) ;
#130 = DIRECTION ( 'NONE',  ( 0.000000000000000000, 0.000000000000000000, 1.000000000000000000 ) ) ;
#131 = CARTESIAN_POINT ( 'NONE',  ( 0.000000000000000000, 7.000000000000000000, 0.000000000000000000 ) ) ;
#132 = CARTESIAN_POINT ( 'NONE',  ( 0.000000000000000000, 0.000000000000000000, 0.000000000000000000 ) ) ;
#133 = VECTOR ( 'NONE', #72, 1000.000000000000000 ) ;
#134 = DIRECTION ( 'NONE',  ( -0.000000000000000000, -1.000000000000000000, -0.000000000000000000 ) ) ;
#135 = EDGE_CURVE ( 'NONE', #318, #288, #162, .T. ) ;
#136 = CARTESIAN_POINT ( 'NONE',  ( 0.000000000000000000, 7.000000000000000000, 0.000000000000000000 ) ) ;
#137 = CARTESIAN_POINT ( 'NONE',  ( 0.000000000000000000, 4.000000000000000000, 0.000000000000000000 ) ) ;
#138 = CIRCLE ( 'NONE', #150, 8.500000000000000000 ) ;
#139 = CARTESIAN_POINT ( 'NONE',  ( 0.000000000000000000, 4.000000000000000000, 0.000000000000000000 ) ) ;
#140 = VECTOR ( 'NONE', #365, 1000.000000000000000 ) ;
#141 = DIRECTION ( 'NONE',  ( 0.000000000000000000, 0.000000000000000000, 1.000000000000000000 ) ) ;
#142 = ORIENTED_EDGE ( 'NONE', *, *, #92, .T. ) ;
#143 = AXIS2_PLACEMENT_3D ( 'NONE', #303, #99, #356 ) ;
#144 = DIRECTION ( 'NONE',  ( -0.000000000000000000, -1.000000000000000000, -0.000000000000000000 ) ) ;
#145 = EDGE_LOOP ( 'NONE', ( #273, #148 ) ) ;
#146 = CARTESIAN_POINT ( 'NONE',  ( 0.000000000000000000, 4.000000000000000000, 8.500000000000000000 ) ) ;
#147 = DIRECTION ( 'NONE',  ( 0.000000000000000000, 0.000000000000000000, 1.000000000000000000 ) ) ;
#148 = ORIENTED_EDGE ( 'NONE', *, *, #262, .T. ) ;
#149 = CARTESIAN_POINT ( 'NONE',  ( 0.000000000000000000, 0.000000000000000000, 0.000000000000000000 ) ) ;
#150 = AXIS2_PLACEMENT_3D ( 'NONE', #181, #358, #300 ) ;
#151 = EDGE_LOOP ( 'NONE', ( #277, #301, #306, #349 ) ) ;
#152 = DIRECTION ( 'NONE',  ( 0.000000000000000000, 0.000000000000000000, 1.000000000000000000 ) ) ;
#153 = ORIENTED_EDGE ( 'NONE', *, *, #258, .F. ) ;
#154 = CARTESIAN_POINT ( 'NONE',  ( 0.000000000000000000, 7.000000000000000000, -9.500000000000005329 ) ) ;
#155 = ORIENTED_EDGE ( 'NONE', *, *, #103, .T. ) ;
#156 = EDGE_CURVE ( 'NONE', #125, #288, #108, .T. ) ;
#157 = VERTEX_POINT ( 'NONE', #48 ) ;
#158 = CARTESIAN_POINT ( 'NONE',  ( 0.000000000000000000, 0.000000000000000000, 0.000000000000000000 ) ) ;
#159 = MANIFOLD_SOLID_BREP ( 'Chanfrein1', #28 ) ;
#160 = DIRECTION ( 'NONE',  ( 0.000000000000000000, 0.000000000000000000, 1.000000000000000000 ) ) ;
#161 = EDGE_CURVE ( 'NONE', #180, #8, #378, .T. ) ;
#162 = LINE ( 'NONE', #280, #353 ) ;
#163 = CONICAL_SURFACE ( 'NONE', #370, 9.500000000000005329, 0.7853981633974457255 ) ;
#164 = PRODUCT_CONTEXT ( 'NONE', #107, 'mechanical' ) ;
#165 = AXIS2_PLACEMENT_3D ( 'NONE', #369, #104, #333 ) ;
#166 = CARTESIAN_POINT ( 'NONE',  ( 0.000000000000000000, 0.000000000000000000, 0.000000000000000000 ) ) ;
#167 = DIRECTION ( 'NONE',  ( 0.000000000000000000, 1.000000000000000000, 0.000000000000000000 ) ) ;
#168 = ADVANCED_FACE ( 'NONE', ( #86 ), #344, .T. ) ;
#169 = FILL_AREA_STYLE_COLOUR ( '', #192 ) ;
#170 = AXIS2_PLACEMENT_3D ( 'NONE', #90, #351, #147 ) ;
#171 = PLANE ( 'NONE',  #73 ) ;
#172 = CYLINDRICAL_SURFACE ( 'NONE', #284, 8.500000000000000000 ) ;
#173 = ORIENTED_EDGE ( 'NONE', *, *, #135, .T. ) ;
#174 = DIRECTION ( 'NONE',  ( -0.000000000000000000, 1.000000000000000000, -0.000000000000000000 ) ) ;
#175 = PRODUCT_RELATED_PRODUCT_CATEGORY ( 'part', '', ( #71 ) ) ;
#176 = EDGE_CURVE ( 'NONE', #33, #127, #261, .T. ) ;
#177 = FACE_OUTER_BOUND ( 'NONE', #62, .T. ) ;
#178 = ORIENTED_EDGE ( 'NONE', *, *, #245, .T. ) ;
#179 = DIRECTION ( 'NONE',  ( 0.000000000000000000, 1.000000000000000000, 0.000000000000000000 ) ) ;
#180 = VERTEX_POINT ( 'NONE', #21 ) ;
#181 = CARTESIAN_POINT ( 'NONE',  ( 0.000000000000000000, 7.000000000000000000, 0.000000000000000000 ) ) ;
#182 = VECTOR ( 'NONE', #144, 1000.000000000000000 ) ;
#183 = ORIENTED_EDGE ( 'NONE', *, *, #161, .T. ) ;
#184 = CIRCLE ( 'NONE', #263, 9.500000000000005329 ) ;
#185 = DIRECTION ( 'NONE',  ( -0.000000000000000000, 1.000000000000000000, -0.000000000000000000 ) ) ;
#186 = EDGE_LOOP ( 'NONE', ( #66, #357, #214, #248 ) ) ;
#187 = EDGE_CURVE ( 'NONE', #157, #321, #210, .T. ) ;
#188 = AXIS2_PLACEMENT_3D ( 'NONE', #132, #252, #278 ) ;
#189 = EDGE_LOOP ( 'NONE', ( #40, #173, #292, #190 ) ) ;
#190 = ORIENTED_EDGE ( 'NONE', *, *, #176, .F. ) ;
#191 = CIRCLE ( 'NONE', #269, 5.250000000000000000 ) ;
#192 = COLOUR_RGB ( '',0.7921568627450980005, 0.8196078431372548767, 0.9333333333333333481 ) ;
#193 = DIRECTION ( 'NONE',  ( 0.000000000000000000, -1.000000000000000000, 0.000000000000000000 ) ) ;
#194 = PRESENTATION_LAYER_ASSIGNMENT (  '', '', ( #39 ) ) ;
#195 = LINE ( 'NONE', #76, #319 ) ;
#196 = CARTESIAN_POINT ( 'NONE',  ( 0.000000000000000000, 0.000000000000000000, 9.499999999999996447 ) ) ;
#197 = AXIS2_PLACEMENT_3D ( 'NONE', #375, #231, #57 ) ;
#198 = ADVANCED_FACE ( 'NONE', ( #82, #202 ), #171, .T. ) ;
#199 = APPLICATION_CONTEXT ( 'automotive_design' ) ;
#200 = CARTESIAN_POINT ( 'NONE',  ( 1.285879139104720831E-15, 0.9999999999999991118, -10.50000000000000000 ) ) ;
#201 = ADVANCED_FACE ( 'NONE', ( #343 ), #83, .F. ) ;
#202 = FACE_OUTER_BOUND ( 'NONE', #10, .T. ) ;
#203 = DIRECTION ( 'NONE',  ( 0.000000000000000000, 0.000000000000000000, 1.000000000000000000 ) ) ;
#204 = AXIS2_PLACEMENT_3D ( 'NONE', #206, #342, #291 ) ;
#205 = SURFACE_STYLE_FILL_AREA ( #79 ) ;
#206 = CARTESIAN_POINT ( 'NONE',  ( 0.000000000000000000, 7.000000000000000000, 0.000000000000000000 ) ) ;
#207 =( GEOMETRIC_REPRESENTATION_CONTEXT ( 3 ) GLOBAL_UNCERTAINTY_ASSIGNED_CONTEXT ( ( #372 ) ) GLOBAL_UNIT_ASSIGNED_CONTEXT ( ( #60, #348, #61 ) ) REPRESENTATION_CONTEXT ( 'NONE', 'WORKASPACE' ) );
#208 = DIRECTION ( 'NONE',  ( 0.000000000000000000, -1.000000000000000000, 0.000000000000000000 ) ) ;
#209 = ORIENTED_EDGE ( 'NONE', *, *, #43, .F. ) ;
#210 = CIRCLE ( 'NONE', #255, 8.500000000000000000 ) ;
#211 = DIRECTION ( 'NONE',  ( -0.000000000000000000, 1.000000000000000000, -0.000000000000000000 ) ) ;
#212 = ORIENTED_EDGE ( 'NONE', *, *, #187, .F. ) ;
#213 = CARTESIAN_POINT ( 'NONE',  ( 1.285879139104720831E-15, 5.999999999999999112, 10.50000000000000000 ) ) ;
#214 = ORIENTED_EDGE ( 'NONE', *, *, #307, .F. ) ;
#215 = DIRECTION ( 'NONE',  ( -0.000000000000000000, 1.000000000000000000, -0.000000000000000000 ) ) ;
#216 = ORIENTED_EDGE ( 'NONE', *, *, #18, .T. ) ;
#217 = CARTESIAN_POINT ( 'NONE',  ( 0.000000000000000000, 0.9999999999999991118, 0.000000000000000000 ) ) ;
#218 = AXIS2_PLACEMENT_3D ( 'NONE', #126, #215, #294 ) ;
#219 = ORIENTED_EDGE ( 'NONE', *, *, #257, .T. ) ;
#220 = CONICAL_SURFACE ( 'NONE', #302, 9.500000000000005329, 0.7853981633974457255 ) ;
#221 = ORIENTED_EDGE ( 'NONE', *, *, #295, .T. ) ;
#222 = CARTESIAN_POINT ( 'NONE',  ( 0.000000000000000000, 0.000000000000000000, 5.250000000000000000 ) ) ;
#223 = FACE_OUTER_BOUND ( 'NONE', #323, .T. ) ;
#224 = ADVANCED_FACE ( 'NONE', ( #317 ), #315, .T. ) ;
#225 = FACE_BOUND ( 'NONE', #275, .T. ) ;
#226 = CARTESIAN_POINT ( 'NONE',  ( 0.000000000000000000, 0.9999999999999991118, 10.50000000000000000 ) ) ;
#227 = DIRECTION ( 'NONE',  ( 0.000000000000000000, 0.000000000000000000, -1.000000000000000000 ) ) ;
#228 = ADVANCED_FACE ( 'NONE', ( #286 ), #172, .F. ) ;
#229 = DIRECTION ( 'NONE',  ( 0.000000000000000000, 0.000000000000000000, 1.000000000000000000 ) ) ;
#230 = CARTESIAN_POINT ( 'NONE',  ( 0.000000000000000000, 7.000000000000000000, -10.50000000000000000 ) ) ;
#231 = DIRECTION ( 'NONE',  ( -0.000000000000000000, -1.000000000000000000, -0.000000000000000000 ) ) ;
#232 = VECTOR ( 'NONE', #118, 1000.000000000000000 ) ;
#233 = SURFACE_SIDE_STYLE ('',( #205 ) ) ;
#234 = AXIS2_PLACEMENT_3D ( 'NONE', #131, #251, #111 ) ;
#235 = DIRECTION ( 'NONE',  ( -0.000000000000000000, 1.000000000000000000, -0.000000000000000000 ) ) ;
#236 = CARTESIAN_POINT ( 'NONE',  ( 0.000000000000000000, 0.9999999999999991118, 0.000000000000000000 ) ) ;
#237 = ORIENTED_EDGE ( 'NONE', *, *, #101, .F. ) ;
#238 = AXIS2_PLACEMENT_3D ( 'NONE', #166, #256, #54 ) ;
#239 = CARTESIAN_POINT ( 'NONE',  ( 0.000000000000000000, 4.000000000000000000, 0.000000000000000000 ) ) ;
#240 = ORIENTED_EDGE ( 'NONE', *, *, #176, .T. ) ;
#241 = DIRECTION ( 'NONE',  ( -0.000000000000000000, 1.000000000000000000, -0.000000000000000000 ) ) ;
#242 = ORIENTED_EDGE ( 'NONE', *, *, #324, .T. ) ;
#243 = PLANE ( 'NONE',  #143 ) ;
#244 = EDGE_LOOP ( 'NONE', ( #268, #142, #153, #115 ) ) ;
#245 = EDGE_CURVE ( 'NONE', #321, #157, #119, .T. ) ;
#246 = DIRECTION ( 'NONE',  ( 0.000000000000000000, 0.000000000000000000, -1.000000000000000000 ) ) ;
#247 = MECHANICAL_DESIGN_GEOMETRIC_PRESENTATION_REPRESENTATION (  '', ( #39 ), #20 ) ;
#248 = ORIENTED_EDGE ( 'NONE', *, *, #156, .F. ) ;
#249 = CYLINDRICAL_SURFACE ( 'NONE', #165, 5.250000000000000000 ) ;
#250 = DIRECTION ( 'NONE',  ( 8.659560562354955045E-17, 0.7071067811865456854, -0.7071067811865493491 ) ) ;
#251 = DIRECTION ( 'NONE',  ( 0.000000000000000000, 1.000000000000000000, 0.000000000000000000 ) ) ;
#252 = DIRECTION ( 'NONE',  ( 0.000000000000000000, 0.000000000000000000, 1.000000000000000000 ) ) ;
#253 = LINE ( 'NONE', #11, #140 ) ;
#254 = FACE_OUTER_BOUND ( 'NONE', #70, .T. ) ;
#255 = AXIS2_PLACEMENT_3D ( 'NONE', #379, #374, #229 ) ;
#256 = DIRECTION ( 'NONE',  ( 0.000000000000000000, 1.000000000000000000, 0.000000000000000000 ) ) ;
#257 = EDGE_CURVE ( 'NONE', #157, #3, #259, .T. ) ;
#258 = EDGE_CURVE ( 'NONE', #33, #318, #335, .T. ) ;
#259 = LINE ( 'NONE', #376, #345 ) ;
#260 = CIRCLE ( 'NONE', #97, 9.499999999999996447 ) ;
#261 = LINE ( 'NONE', #230, #182 ) ;
#262 = EDGE_CURVE ( 'NONE', #360, #271, #67, .T. ) ;
#263 = AXIS2_PLACEMENT_3D ( 'NONE', #362, #74, #160 ) ;
#264 = ORIENTED_EDGE ( 'NONE', *, *, #266, .T. ) ;
#265 = DIRECTION ( 'NONE',  ( -0.000000000000000000, -1.000000000000000000, -0.000000000000000000 ) ) ;
#266 = EDGE_CURVE ( 'NONE', #127, #288, #328, .T. ) ;
#267 = CARTESIAN_POINT ( 'NONE',  ( 0.000000000000000000, 7.000000000000000000, 8.500000000000000000 ) ) ;
#268 = ORIENTED_EDGE ( 'NONE', *, *, #262, .F. ) ;
#269 = AXIS2_PLACEMENT_3D ( 'NONE', #239, #93, #297 ) ;
#270 = DIRECTION ( 'NONE',  ( 0.000000000000000000, 1.000000000000000000, 0.000000000000000000 ) ) ;
#271 = VERTEX_POINT ( 'NONE', #154 ) ;
#272 = CARTESIAN_POINT ( 'NONE',  ( 1.224646799147353651E-15, 7.000000000000000000, 9.500000000000005329 ) ) ;
#273 = ORIENTED_EDGE ( 'NONE', *, *, #46, .T. ) ;
#274 = DIRECTION ( 'NONE',  ( 0.000000000000000000, 0.000000000000000000, 1.000000000000000000 ) ) ;
#275 = EDGE_LOOP ( 'NONE', ( #183, #242 ) ) ;
#276 = LINE ( 'NONE', #77, #49 ) ;
#277 = ORIENTED_EDGE ( 'NONE', *, *, #257, .F. ) ;
#278 = DIRECTION ( 'NONE',  ( 1.000000000000000000, 0.000000000000000000, 0.000000000000000000 ) ) ;
#279 = EDGE_LOOP ( 'NONE', ( #331, #94, #240, #264 ) ) ;
#280 = CARTESIAN_POINT ( 'NONE',  ( 1.285879139104720831E-15, 7.000000000000000000, 10.50000000000000000 ) ) ;
#281 = CIRCLE ( 'NONE', #47, 5.250000000000000000 ) ;
#282 = EDGE_LOOP ( 'NONE', ( #209, #112, #216, #221 ) ) ;
#283 = DIRECTION ( 'NONE',  ( 0.000000000000000000, 0.000000000000000000, 1.000000000000000000 ) ) ;
#284 = AXIS2_PLACEMENT_3D ( 'NONE', #139, #24, #371 ) ;
#285 = ADVANCED_FACE ( 'NONE', ( #177 ), #364, .T. ) ;
#286 = FACE_OUTER_BOUND ( 'NONE', #151, .T. ) ;
#287 = AXIS2_PLACEMENT_3D ( 'NONE', #338, #311, #15 ) ;
#288 = VERTEX_POINT ( 'NONE', #63 ) ;
#289 = EDGE_LOOP ( 'NONE', ( #212, #219, #37, #6 ) ) ;
#290 = EDGE_CURVE ( 'NONE', #321, #298, #29, .T. ) ;
#291 = DIRECTION ( 'NONE',  ( 0.000000000000000000, 0.000000000000000000, -1.000000000000000000 ) ) ;
#292 = ORIENTED_EDGE ( 'NONE', *, *, #307, .T. ) ;
#293 = EDGE_CURVE ( 'NONE', #96, #100, #281, .T. ) ;
#294 = DIRECTION ( 'NONE',  ( 0.000000000000000000, 0.000000000000000000, 1.000000000000000000 ) ) ;
#295 = EDGE_CURVE ( 'NONE', #100, #96, #191, .T. ) ;
#296 = ORIENTED_EDGE ( 'NONE', *, *, #324, .F. ) ;
#297 = DIRECTION ( 'NONE',  ( 0.000000000000000000, 0.000000000000000000, 1.000000000000000000 ) ) ;
#298 = VERTEX_POINT ( 'NONE', #267 ) ;
#299 = AXIS2_PLACEMENT_3D ( 'NONE', #136, #167, #283 ) ;
#300 = DIRECTION ( 'NONE',  ( 0.000000000000000000, 0.000000000000000000, 1.000000000000000000 ) ) ;
#301 = ORIENTED_EDGE ( 'NONE', *, *, #245, .F. ) ;
#302 = AXIS2_PLACEMENT_3D ( 'NONE', #17, #336, #227 ) ;
#303 = CARTESIAN_POINT ( 'NONE',  ( 0.000000000000000000, 7.000000000000000000, 0.000000000000000000 ) ) ;
#304 = ORIENTED_EDGE ( 'NONE', *, *, #156, .T. ) ;
#305 = PRODUCT_DEFINITION_FORMATION_WITH_SPECIFIED_SOURCE ( 'ANY', '', #71, .NOT_KNOWN. ) ;
#306 = ORIENTED_EDGE ( 'NONE', *, *, #290, .T. ) ;
#307 = EDGE_CURVE ( 'NONE', #288, #127, #105, .T. ) ;
#308 = CIRCLE ( 'NONE', #4, 5.250000000000000000 ) ;
#309 = CARTESIAN_POINT ( 'NONE',  ( 0.000000000000000000, 5.999999999999999112, -10.50000000000000000 ) ) ;
#310 = DIRECTION ( 'NONE',  ( 0.000000000000000000, 0.000000000000000000, 1.000000000000000000 ) ) ;
#311 = DIRECTION ( 'NONE',  ( 0.000000000000000000, 1.000000000000000000, 0.000000000000000000 ) ) ;
#312 = PLANE ( 'NONE',  #287 ) ;
#313 = CARTESIAN_POINT ( 'NONE',  ( 0.000000000000000000, 4.000000000000000000, 5.250000000000000000 ) ) ;
#314 =( NAMED_UNIT ( * ) PLANE_ANGLE_UNIT ( ) SI_UNIT ( $, .RADIAN. ) );
#315 = CYLINDRICAL_SURFACE ( 'NONE', #197, 10.50000000000000000 ) ;
#316 = CARTESIAN_POINT ( 'NONE',  ( 0.000000000000000000, 4.000000000000000000, 0.000000000000000000 ) ) ;
#317 = FACE_OUTER_BOUND ( 'NONE', #189, .T. ) ;
#318 = VERTEX_POINT ( 'NONE', #213 ) ;
#319 = VECTOR ( 'NONE', #44, 1000.000000000000000 ) ;
#320 = DIRECTION ( 'NONE',  ( 0.000000000000000000, 0.000000000000000000, 1.000000000000000000 ) ) ;
#321 = VERTEX_POINT ( 'NONE', #32 ) ;
#322 = DIRECTION ( 'NONE',  ( 0.000000000000000000, 0.000000000000000000, 1.000000000000000000 ) ) ;
#323 = EDGE_LOOP ( 'NONE', ( #296, #80, #123, #330 ) ) ;
#324 = EDGE_CURVE ( 'NONE', #8, #180, #308, .T. ) ;
#325 = ADVANCED_FACE ( 'NONE', ( #354 ), #9, .F. ) ;
#326 = FACE_OUTER_BOUND ( 'NONE', #244, .T. ) ;
#327 = ORIENTED_EDGE ( 'NONE', *, *, #293, .F. ) ;
#328 = CIRCLE ( 'NONE', #27, 10.50000000000000000 ) ;
#329 = CARTESIAN_POINT ( 'NONE',  ( 0.000000000000000000, 7.000000000000000000, 0.000000000000000000 ) ) ;
#330 = ORIENTED_EDGE ( 'NONE', *, *, #18, .F. ) ;
#331 = ORIENTED_EDGE ( 'NONE', *, *, #135, .F. ) ;
#332 = ADVANCED_FACE ( 'NONE', ( #326 ), #163, .T. ) ;
#333 = DIRECTION ( 'NONE',  ( 0.000000000000000000, 0.000000000000000000, 1.000000000000000000 ) ) ;
#334 = APPLICATION_PROTOCOL_DEFINITION ( 'draft international standard', 'automotive_design', 1998, #107 ) ;
#335 = CIRCLE ( 'NONE', #41, 10.50000000000000000 ) ;
#336 = DIRECTION ( 'NONE',  ( 0.000000000000000000, -1.000000000000000000, 0.000000000000000000 ) ) ;
#337 = VECTOR ( 'NONE', #102, 1000.000000000000000 ) ;
#338 = CARTESIAN_POINT ( 'NONE',  ( 0.000000000000000000, 0.000000000000000000, 0.000000000000000000 ) ) ;
#339 = CARTESIAN_POINT ( 'NONE',  ( 1.040949779275250140E-15, 7.000000000000000000, -8.500000000000000000 ) ) ;
#340 = CARTESIAN_POINT ( 'NONE',  ( 1.224646799147353059E-15, 0.000000000000000000, -9.499999999999996447 ) ) ;
#341 = EDGE_CURVE ( 'NONE', #298, #3, #138, .T. ) ;
#342 = DIRECTION ( 'NONE',  ( -0.000000000000000000, -1.000000000000000000, -0.000000000000000000 ) ) ;
#343 = FACE_OUTER_BOUND ( 'NONE', #282, .T. ) ;
#344 = CYLINDRICAL_SURFACE ( 'NONE', #204, 10.50000000000000000 ) ;
#345 = VECTOR ( 'NONE', #174, 1000.000000000000000 ) ;
#346 = DIRECTION ( 'NONE',  ( 0.000000000000000000, 1.000000000000000000, 0.000000000000000000 ) ) ;
#347 = CARTESIAN_POINT ( 'NONE',  ( 0.000000000000000000, 5.999999999999999112, 0.000000000000000000 ) ) ;
#348 =( NAMED_UNIT ( * ) PLANE_ANGLE_UNIT ( ) SI_UNIT ( $, .RADIAN. ) );
#349 = ORIENTED_EDGE ( 'NONE', *, *, #341, .T. ) ;
#350 = AXIS2_PLACEMENT_3D ( 'NONE', #217, #211, #68 ) ;
#351 = DIRECTION ( 'NONE',  ( -0.000000000000000000, 1.000000000000000000, -0.000000000000000000 ) ) ;
#352 = EDGE_LOOP ( 'NONE', ( #69, #120 ) ) ;
#353 = VECTOR ( 'NONE', #134, 1000.000000000000000 ) ;
#354 = FACE_OUTER_BOUND ( 'NONE', #289, .T. ) ;
#355 = EDGE_LOOP ( 'NONE', ( #89, #327 ) ) ;
#356 = DIRECTION ( 'NONE',  ( 0.000000000000000000, -0.000000000000000000, 1.000000000000000000 ) ) ;
#357 = ORIENTED_EDGE ( 'NONE', *, *, #56, .T. ) ;
#358 = DIRECTION ( 'NONE',  ( 0.000000000000000000, 1.000000000000000000, 0.000000000000000000 ) ) ;
#359 = EDGE_CURVE ( 'NONE', #125, #31, #260, .T. ) ;
#360 = VERTEX_POINT ( 'NONE', #272 ) ;
#361 = CARTESIAN_POINT ( 'NONE',  ( 6.429395695523604153E-16, 0.000000000000000000, -5.250000000000000000 ) ) ;
#362 = CARTESIAN_POINT ( 'NONE',  ( 0.000000000000000000, 7.000000000000000000, 0.000000000000000000 ) ) ;
#363 = APPLICATION_PROTOCOL_DEFINITION ( 'draft international standard', 'automotive_design', 1998, #199 ) ;
#364 = CONICAL_SURFACE ( 'NONE', #53, 10.50000000000000000, 0.7853981633974509435 ) ;
#365 = DIRECTION ( 'NONE',  ( 0.000000000000000000, -0.7071067811865493491, -0.7071067811865456854 ) ) ;
#366 = ADVANCED_FACE ( 'NONE', ( #7, #124 ), #243, .T. ) ;
#367 = LINE ( 'NONE', #222, #133 ) ;
#368 = AXIS2_PLACEMENT_3D ( 'NONE', #158, #12, #130 ) ;
#369 = CARTESIAN_POINT ( 'NONE',  ( 0.000000000000000000, 0.000000000000000000, 0.000000000000000000 ) ) ;
#370 = AXIS2_PLACEMENT_3D ( 'NONE', #329, #65, #246 ) ;
#371 = DIRECTION ( 'NONE',  ( 0.000000000000000000, 0.000000000000000000, 1.000000000000000000 ) ) ;
#372 = UNCERTAINTY_MEASURE_WITH_UNIT (LENGTH_MEASURE( 1.000000000000000082E-05 ), #60, 'distance_accuracy_value', 'NONE');
#373 = ADVANCED_FACE ( 'NONE', ( #95 ), #88, .T. ) ;
#374 = DIRECTION ( 'NONE',  ( 0.000000000000000000, 1.000000000000000000, 0.000000000000000000 ) ) ;
#375 = CARTESIAN_POINT ( 'NONE',  ( 0.000000000000000000, 7.000000000000000000, 0.000000000000000000 ) ) ;
#376 = CARTESIAN_POINT ( 'NONE',  ( 1.040949779275250140E-15, 4.000000000000000000, -8.500000000000000000 ) ) ;
#377 = ORIENTED_EDGE ( 'NONE', *, *, #92, .F. ) ;
#378 = CIRCLE ( 'NONE', #238, 5.250000000000000000 ) ;
#379 = CARTESIAN_POINT ( 'NONE',  ( 0.000000000000000000, 4.000000000000000000, 0.000000000000000000 ) ) ;
ENDSEC;
END-ISO-10303-21;
