ISO-10303-21;
HEADER;
FILE_DESCRIPTION (( 'STEP AP203' ),
    '1' );
FILE_NAME ('PENTUREUSE-AXE.STEP',
    '2024-06-29T15:41:31',
    ( '' ),
    ( '' ),
    'SwSTEP 2.0',
    'SolidWorks 2020',
    '' );
FILE_SCHEMA (( 'CONFIG_CONTROL_DESIGN' ));
ENDSEC;

DATA;
#1 = ORIENTED_EDGE ( 'NONE', *, *, #285, .T. ) ;
#2 = CARTESIAN_POINT ( 'NONE',  ( -1.421042059660722991E-31, 111.0000000000000000, 0.000000000000000000 ) ) ;
#3 = AXIS2_PLACEMENT_3D ( 'NONE', #117, #222, #324 ) ;
#4 = DIRECTION ( 'NONE',  ( 1.156482317317871725E-16, 1.000000000000000000, -0.000000000000000000 ) ) ;
#5 = ADVANCED_BREP_SHAPE_REPRESENTATION ( 'PENTUREUSE-AXE', ( #52, #210 ), #101 ) ;
#6 = CC_DESIGN_PERSON_AND_ORGANIZATION_ASSIGNMENT ( #23, #175, ( #248 ) ) ;
#7 = CARTESIAN_POINT ( 'NONE',  ( -6.250000000000013323, 111.0000000000000000, 0.000000000000000000 ) ) ;
#8 = CARTESIAN_POINT ( 'NONE',  ( -15.00000000000001066, 139.0000000000000000, 0.000000000000000000 ) ) ;
#9 = CARTESIAN_POINT ( 'NONE',  ( 0.000000000000000000, 0.000000000000000000, 0.000000000000000000 ) ) ;
#10 = ORIENTED_EDGE ( 'NONE', *, *, #132, .T. ) ;
#11 = CALENDAR_DATE ( 2024, 29, 6 ) ;
#12 = DIRECTION ( 'NONE',  ( 1.156482317317871725E-16, 1.000000000000000000, -0.000000000000000000 ) ) ;
#13 = DIRECTION ( 'NONE',  ( -1.000000000000000000, 1.156482317317871725E-16, 0.000000000000000000 ) ) ;
#14 = VECTOR ( 'NONE', #130, 1000.000000000000000 ) ;
#15 = CYLINDRICAL_SURFACE ( 'NONE', #232, 6.250000000000012434 ) ;
#16 = ADVANCED_FACE ( 'NONE', ( #129 ), #233, .T. ) ;
#17 = DATE_AND_TIME ( #123, #66 ) ;
#18 = VECTOR ( 'NONE', #325, 1000.000000000000000 ) ;
#19 = EDGE_LOOP ( 'NONE', ( #275, #209 ) ) ;
#20 = EDGE_CURVE ( 'NONE', #24, #203, #158, .T. ) ;
#21 = PERSON_AND_ORGANIZATION ( #216, #266 ) ;
#22 = ORIENTED_EDGE ( 'NONE', *, *, #43, .T. ) ;
#23 = PERSON_AND_ORGANIZATION ( #216, #266 ) ;
#24 = VERTEX_POINT ( 'NONE', #186 ) ;
#25 = AXIS2_PLACEMENT_3D ( 'NONE', #62, #4, #286 ) ;
#26 = ORIENTED_EDGE ( 'NONE', *, *, #183, .T. ) ;
#27 = CARTESIAN_POINT ( 'NONE',  ( -15.00000000000001954, 1.734723475976809855E-15, 0.000000000000000000 ) ) ;
#28 = PRODUCT_DEFINITION ( 'UNKNOWN', '', #200, #189 ) ;
#29 = LINE ( 'NONE', #185, #322 ) ;
#30 = APPLICATION_CONTEXT ( 'configuration controlled 3d designs of mechanical parts and assemblies' ) ;
#31 = CARTESIAN_POINT ( 'NONE',  ( 16.00000000000006040, 199.0000000000000000, 1.959434878635769470E-15 ) ) ;
#32 = AXIS2_PLACEMENT_3D ( 'NONE', #145, #196, #247 ) ;
#33 = CARTESIAN_POINT ( 'NONE',  ( 1.607510421071841767E-14, 139.0000000000000000, 0.000000000000000000 ) ) ;
#34 = FACE_OUTER_BOUND ( 'NONE', #301, .T. ) ;
#35 = ORIENTED_EDGE ( 'NONE', *, *, #326, .F. ) ;
#36 = CARTESIAN_POINT ( 'NONE',  ( -8.359061976256916090E-32, -7.228006733076003040E-16, 0.000000000000000000 ) ) ;
#37 = CIRCLE ( 'NONE', #303, 15.00000000000002487 ) ;
#38 = DIRECTION ( 'NONE',  ( 1.156482317317871725E-16, 1.000000000000000000, -0.000000000000000000 ) ) ;
#39 = PERSON_AND_ORGANIZATION_ROLE ( 'classification_officer' ) ;
#40 = LINE ( 'NONE', #144, #18 ) ;
#41 = CARTESIAN_POINT ( 'NONE',  ( 0.000000000000000000, 0.000000000000000000, 0.000000000000000000 ) ) ;
#42 = AXIS2_PLACEMENT_3D ( 'NONE', #95, #294, #198 ) ;
#43 = EDGE_CURVE ( 'NONE', #70, #307, #75, .T. ) ;
#44 = FACE_OUTER_BOUND ( 'NONE', #283, .T. ) ;
#45 = DIRECTION ( 'NONE',  ( -1.000000000000000000, 0.000000000000000000, 0.000000000000000000 ) ) ;
#46 = PERSON_AND_ORGANIZATION ( #216, #266 ) ;
#47 = APPLICATION_PROTOCOL_DEFINITION ( 'international standard', 'config_control_design', 1994, #48 ) ;
#48 = APPLICATION_CONTEXT ( 'configuration controlled 3d designs of mechanical parts and assemblies' ) ;
#49 = ORIENTED_EDGE ( 'NONE', *, *, #316, .F. ) ;
#50 = PERSON_AND_ORGANIZATION ( #216, #266 ) ;
#51 = ORIENTED_EDGE ( 'NONE', *, *, #332, .T. ) ;
#52 = MANIFOLD_SOLID_BREP ( 'Stock-PENTUREUSE-1', #63 ) ;
#53 = ORIENTED_EDGE ( 'NONE', *, *, #311, .F. ) ;
#54 = ADVANCED_FACE ( 'NONE', ( #236, #61 ), #288, .T. ) ;
#55 = AXIS2_PLACEMENT_3D ( 'NONE', #268, #246, #299 ) ;
#56 = EDGE_LOOP ( 'NONE', ( #310, #10, #80, #35 ) ) ;
#57 = CC_DESIGN_APPROVAL ( #120, ( #282 ) ) ;
#58 = ORIENTED_EDGE ( 'NONE', *, *, #183, .F. ) ;
#59 = CARTESIAN_POINT ( 'NONE',  ( 1.283695372222837565E-14, 111.0000000000000000, 0.000000000000000000 ) ) ;
#60 = EDGE_CURVE ( 'NONE', #100, #153, #104, .T. ) ;
#61 = FACE_OUTER_BOUND ( 'NONE', #127, .T. ) ;
#62 = CARTESIAN_POINT ( 'NONE',  ( 2.301399811462564920E-14, 199.0000000000000000, 0.000000000000000000 ) ) ;
#63 = CLOSED_SHELL ( 'NONE', ( #269, #16, #321, #81, #258, #103, #93, #54, #278, #154 ) ) ;
#64 = CARTESIAN_POINT ( 'NONE',  ( -4.179530988128458045E-32, -3.614003366538001520E-16, 0.000000000000000000 ) ) ;
#65 = DIRECTION ( 'NONE',  ( -1.156482317317871725E-16, -1.000000000000000000, 0.000000000000000000 ) ) ;
#66 = LOCAL_TIME ( 17, 41, 31.00000000000000000, #201 ) ;
#67 = EDGE_CURVE ( 'NONE', #24, #205, #118, .T. ) ;
#68 = DIRECTION ( 'NONE',  ( 1.156482317317871725E-16, 1.000000000000000000, -0.000000000000000000 ) ) ;
#69 = APPROVAL_DATE_TIME ( #226, #197 ) ;
#70 = VERTEX_POINT ( 'NONE', #188 ) ;
#71 = AXIS2_PLACEMENT_3D ( 'NONE', #9, #217, #263 ) ;
#72 = PERSON_AND_ORGANIZATION_ROLE ( 'creator' ) ;
#73 = CC_DESIGN_SECURITY_CLASSIFICATION ( #282, ( #200 ) ) ;
#74 = EDGE_LOOP ( 'NONE', ( #253, #335, #206, #230 ) ) ;
#75 = CIRCLE ( 'NONE', #308, 16.00000000000001776 ) ;
#76 = EDGE_LOOP ( 'NONE', ( #277, #22, #98, #251 ) ) ;
#77 = CC_DESIGN_PERSON_AND_ORGANIZATION_ASSIGNMENT ( #87, #39, ( #282 ) ) ;
#78 = CARTESIAN_POINT ( 'NONE',  ( 0.000000000000000000, 0.000000000000000000, 0.000000000000000000 ) ) ;
#79 = ORIENTED_EDGE ( 'NONE', *, *, #20, .T. ) ;
#80 = ORIENTED_EDGE ( 'NONE', *, *, #60, .F. ) ;
#81 = ADVANCED_FACE ( 'NONE', ( #82 ), #242, .T. ) ;
#82 = FACE_OUTER_BOUND ( 'NONE', #333, .T. ) ;
#83 = EDGE_LOOP ( 'NONE', ( #227, #235, #256, #124 ) ) ;
#84 = LINE ( 'NONE', #211, #96 ) ;
#85 = CARTESIAN_POINT ( 'NONE',  ( 1.283695372222837565E-14, 111.0000000000000000, 0.000000000000000000 ) ) ;
#86 = AXIS2_PLACEMENT_3D ( 'NONE', #225, #38, #94 ) ;
#87 = PERSON_AND_ORGANIZATION ( #216, #266 ) ;
#88 = DIRECTION ( 'NONE',  ( 1.000000000000000000, -1.156482317317871725E-16, 0.000000000000000000 ) ) ;
#89 = CYLINDRICAL_SURFACE ( 'NONE', #71, 15.00000000000001954 ) ;
#90 = APPLICATION_PROTOCOL_DEFINITION ( 'international standard', 'config_control_design', 1994, #30 ) ;
#91 = DATE_AND_TIME ( #11, #318 ) ;
#92 = DIRECTION ( 'NONE',  ( -1.000000000000000000, 1.156482317317871725E-16, 0.000000000000000000 ) ) ;
#93 = ADVANCED_FACE ( 'NONE', ( #314 ), #89, .T. ) ;
#94 = DIRECTION ( 'NONE',  ( -1.000000000000000000, 0.000000000000000000, 0.000000000000000000 ) ) ;
#95 = CARTESIAN_POINT ( 'NONE',  ( 1.607510421071841767E-14, 139.0000000000000000, 0.000000000000000000 ) ) ;
#96 = VECTOR ( 'NONE', #131, 1000.000000000000000 ) ;
#97 = DATE_AND_TIME ( #125, #287 ) ;
#98 = ORIENTED_EDGE ( 'NONE', *, *, #202, .T. ) ;
#99 = APPROVAL_STATUS ( 'not_yet_approved' ) ;
#100 = VERTEX_POINT ( 'NONE', #7 ) ;
#101 =( GEOMETRIC_REPRESENTATION_CONTEXT ( 3 ) GLOBAL_UNCERTAINTY_ASSIGNED_CONTEXT ( ( #168 ) ) GLOBAL_UNIT_ASSIGNED_CONTEXT ( ( #296, #272, #142 ) ) REPRESENTATION_CONTEXT ( 'NONE', 'WORKASPACE' ) );
#102 = VERTEX_POINT ( 'NONE', #320 ) ;
#103 = ADVANCED_FACE ( 'NONE', ( #135, #34 ), #192, .T. ) ;
#104 = CIRCLE ( 'NONE', #262, 6.250000000000026645 ) ;
#105 = ORIENTED_EDGE ( 'NONE', *, *, #67, .F. ) ;
#106 = EDGE_LOOP ( 'NONE', ( #51, #184 ) ) ;
#107 = CIRCLE ( 'NONE', #55, 15.00000000000001599 ) ;
#108 = DIRECTION ( 'NONE',  ( 1.156482317317871725E-16, 1.000000000000000000, -0.000000000000000000 ) ) ;
#109 = COORDINATED_UNIVERSAL_TIME_OFFSET ( 1, 0, .AHEAD. ) ;
#110 = LINE ( 'NONE', #138, #121 ) ;
#111 = DIRECTION ( 'NONE',  ( -1.156482317317871725E-16, -1.000000000000000000, 0.000000000000000000 ) ) ;
#112 = DIRECTION ( 'NONE',  ( 1.000000000000000000, -1.156482317317871725E-16, 0.000000000000000000 ) ) ;
#113 = CIRCLE ( 'NONE', #133, 6.250000000000026645 ) ;
#114 = CARTESIAN_POINT ( 'NONE',  ( -1.069961080215132319E-31, 199.0000000000000000, 0.000000000000000000 ) ) ;
#115 = FACE_OUTER_BOUND ( 'NONE', #76, .T. ) ;
#116 = LOCAL_TIME ( 17, 41, 31.00000000000000000, #109 ) ;
#117 = CARTESIAN_POINT ( 'NONE',  ( -8.359061976256916090E-32, -7.228006733076003040E-16, 0.000000000000000000 ) ) ;
#118 = CIRCLE ( 'NONE', #281, 15.00000000000001599 ) ;
#119 = CARTESIAN_POINT ( 'NONE',  ( -16.00000000000000000, 139.0000000000000000, 0.000000000000000000 ) ) ;
#120 = APPROVAL ( #313, 'UNSPECIFIED' ) ;
#121 = VECTOR ( 'NONE', #239, 1000.000000000000000 ) ;
#122 = CALENDAR_DATE ( 2024, 29, 6 ) ;
#123 = CALENDAR_DATE ( 2024, 29, 6 ) ;
#124 = ORIENTED_EDGE ( 'NONE', *, *, #165, .F. ) ;
#125 = CALENDAR_DATE ( 2024, 29, 6 ) ;
#126 = EDGE_CURVE ( 'NONE', #156, #180, #199, .T. ) ;
#127 = EDGE_LOOP ( 'NONE', ( #105, #241 ) ) ;
#128 = CIRCLE ( 'NONE', #86, 16.00000000000001776 ) ;
#129 = FACE_OUTER_BOUND ( 'NONE', #74, .T. ) ;
#130 = DIRECTION ( 'NONE',  ( 1.156482317317871725E-16, 1.000000000000000000, -0.000000000000000000 ) ) ;
#131 = DIRECTION ( 'NONE',  ( 1.156482317317871725E-16, 1.000000000000000000, -0.000000000000000000 ) ) ;
#132 = EDGE_CURVE ( 'NONE', #102, #153, #29, .T. ) ;
#133 = AXIS2_PLACEMENT_3D ( 'NONE', #59, #161, #134 ) ;
#134 = DIRECTION ( 'NONE',  ( -1.000000000000000000, 0.000000000000000000, 0.000000000000000000 ) ) ;
#135 = FACE_BOUND ( 'NONE', #106, .T. ) ;
#136 = SECURITY_CLASSIFICATION_LEVEL ( 'unclassified' ) ;
#137 = CC_DESIGN_PERSON_AND_ORGANIZATION_ASSIGNMENT ( #329, #72, ( #200 ) ) ;
#138 = CARTESIAN_POINT ( 'NONE',  ( -16.00000000000002842, 1.850371707708597915E-15, 0.000000000000000000 ) ) ;
#139 = ORIENTED_EDGE ( 'NONE', *, *, #143, .T. ) ;
#140 = CARTESIAN_POINT ( 'NONE',  ( 1.283695372222837565E-14, 111.0000000000000000, 0.000000000000000000 ) ) ;
#141 = AXIS2_PLACEMENT_3D ( 'NONE', #215, #213, #164 ) ;
#142 =( NAMED_UNIT ( * ) SI_UNIT ( $, .STERADIAN. ) SOLID_ANGLE_UNIT ( ) );
#143 = EDGE_CURVE ( 'NONE', #70, #156, #84, .T. ) ;
#144 = CARTESIAN_POINT ( 'NONE',  ( -6.250000000000012434, 7.228014483236713319E-16, 0.000000000000000000 ) ) ;
#145 = CARTESIAN_POINT ( 'NONE',  ( 0.000000000000000000, 0.000000000000000000, 0.000000000000000000 ) ) ;
#146 = CIRCLE ( 'NONE', #334, 6.249999999999999112 ) ;
#147 = APPROVAL_ROLE ( '' ) ;
#148 = CARTESIAN_POINT ( 'NONE',  ( 1.607510421071841767E-14, 139.0000000000000000, 0.000000000000000000 ) ) ;
#149 = CARTESIAN_POINT ( 'NONE',  ( 15.00000000000004086, 139.0000000000000000, 1.836970198721033139E-15 ) ) ;
#150 = COORDINATED_UNIVERSAL_TIME_OFFSET ( 1, 0, .AHEAD. ) ;
#151 = PRODUCT_DEFINITION_SHAPE ( 'NONE', 'NONE',  #28 ) ;
#152 = APPROVAL_DATE_TIME ( #97, #234 ) ;
#153 = VERTEX_POINT ( 'NONE', #312 ) ;
#154 = ADVANCED_FACE ( 'NONE', ( #290 ), #265, .T. ) ;
#155 = ORIENTED_EDGE ( 'NONE', *, *, #311, .T. ) ;
#156 = VERTEX_POINT ( 'NONE', #31 ) ;
#157 = APPROVAL_PERSON_ORGANIZATION ( #46, #234, #274 ) ;
#158 = LINE ( 'NONE', #27, #14 ) ;
#159 = EDGE_LOOP ( 'NONE', ( #178, #255 ) ) ;
#160 = PERSON_AND_ORGANIZATION_ROLE ( 'design_supplier' ) ;
#161 = DIRECTION ( 'NONE',  ( 1.156482317317871725E-16, 1.000000000000000000, -0.000000000000000000 ) ) ;
#162 = AXIS2_PLACEMENT_3D ( 'NONE', #41, #244, #92 ) ;
#163 = APPROVAL_PERSON_ORGANIZATION ( #300, #197, #204 ) ;
#164 = DIRECTION ( 'NONE',  ( -1.000000000000000000, 0.000000000000000000, 0.000000000000000000 ) ) ;
#165 = EDGE_CURVE ( 'NONE', #153, #100, #113, .T. ) ;
#166 = DIRECTION ( 'NONE',  ( 1.156482317317871725E-16, 1.000000000000000000, -0.000000000000000000 ) ) ;
#167 = DIRECTION ( 'NONE',  ( -1.000000000000000000, 1.156482317317871725E-16, 0.000000000000000000 ) ) ;
#168 = UNCERTAINTY_MEASURE_WITH_UNIT (LENGTH_MEASURE( 1.000000000000000082E-05 ), #296, 'distance_accuracy_value', 'NONE');
#169 = CARTESIAN_POINT ( 'NONE',  ( -6.249999999999999112, 7.750160694077749885E-22, 0.000000000000000000 ) ) ;
#170 = DIRECTION ( 'NONE',  ( 1.156482317317871725E-16, 1.000000000000000000, -0.000000000000000000 ) ) ;
#171 = CYLINDRICAL_SURFACE ( 'NONE', #32, 6.250000000000012434 ) ;
#172 = AXIS2_PLACEMENT_3D ( 'NONE', #292, #65, #238 ) ;
#173 = CC_DESIGN_DATE_AND_TIME_ASSIGNMENT ( #240, #191, ( #282 ) ) ;
#174 = CYLINDRICAL_SURFACE ( 'NONE', #214, 16.00000000000002842 ) ;
#175 = PERSON_AND_ORGANIZATION_ROLE ( 'design_owner' ) ;
#176 = COORDINATED_UNIVERSAL_TIME_OFFSET ( 1, 0, .AHEAD. ) ;
#177 = APPROVAL_STATUS ( 'not_yet_approved' ) ;
#178 = ORIENTED_EDGE ( 'NONE', *, *, #306, .F. ) ;
#179 = VECTOR ( 'NONE', #68, 1000.000000000000000 ) ;
#180 = VERTEX_POINT ( 'NONE', #237 ) ;
#181 = ORIENTED_EDGE ( 'NONE', *, *, #43, .F. ) ;
#182 = DIRECTION ( 'NONE',  ( 1.156482317317871725E-16, 1.000000000000000000, -0.000000000000000000 ) ) ;
#183 = EDGE_CURVE ( 'NONE', #180, #156, #327, .T. ) ;
#184 = ORIENTED_EDGE ( 'NONE', *, *, #245, .T. ) ;
#185 = CARTESIAN_POINT ( 'NONE',  ( 6.250000000000012434, -7.228014483236713319E-16, 7.654042494670972398E-16 ) ) ;
#186 = CARTESIAN_POINT ( 'NONE',  ( -15.00000000000000533, 111.0000000000000000, 0.000000000000000000 ) ) ;
#187 = CC_DESIGN_PERSON_AND_ORGANIZATION_ASSIGNMENT ( #21, #250, ( #28 ) ) ;
#188 = CARTESIAN_POINT ( 'NONE',  ( 16.00000000000003553, 139.0000000000000000, 1.959434878635767892E-15 ) ) ;
#189 = DESIGN_CONTEXT ( 'detailed design', #48, 'design' ) ;
#190 = DIRECTION ( 'NONE',  ( -1.000000000000000000, 0.000000000000000000, 0.000000000000000000 ) ) ;
#191 = DATE_TIME_ROLE ( 'classification_date' ) ;
#192 = PLANE ( 'NONE',  #172 ) ;
#193 = AXIS2_PLACEMENT_3D ( 'NONE', #64, #261, #88 ) ;
#194 = SHAPE_DEFINITION_REPRESENTATION ( #151, #5 ) ;
#195 = DIRECTION ( 'NONE',  ( -1.000000000000000000, 1.156482317317871725E-16, 0.000000000000000000 ) ) ;
#196 = DIRECTION ( 'NONE',  ( 1.156482317317871725E-16, 1.000000000000000000, -0.000000000000000000 ) ) ;
#197 = APPROVAL ( #99, 'UNSPECIFIED' ) ;
#198 = DIRECTION ( 'NONE',  ( -1.000000000000000000, 0.000000000000000000, 0.000000000000000000 ) ) ;
#199 = CIRCLE ( 'NONE', #141, 16.00000000000003553 ) ;
#200 = PRODUCT_DEFINITION_FORMATION_WITH_SPECIFIED_SOURCE ( 'ANY', '', #248, .NOT_KNOWN. ) ;
#201 = COORDINATED_UNIVERSAL_TIME_OFFSET ( 1, 0, .AHEAD. ) ;
#202 = EDGE_CURVE ( 'NONE', #307, #180, #110, .T. ) ;
#203 = VERTEX_POINT ( 'NONE', #8 ) ;
#204 = APPROVAL_ROLE ( '' ) ;
#205 = VERTEX_POINT ( 'NONE', #319 ) ;
#206 = ORIENTED_EDGE ( 'NONE', *, *, #332, .F. ) ;
#207 = AXIS2_PLACEMENT_3D ( 'NONE', #2, #111, #112 ) ;
#208 = ORIENTED_EDGE ( 'NONE', *, *, #202, .F. ) ;
#209 = ORIENTED_EDGE ( 'NONE', *, *, #165, .T. ) ;
#210 = AXIS2_PLACEMENT_3D ( 'NONE', #229, #276, #273 ) ;
#211 = CARTESIAN_POINT ( 'NONE',  ( 16.00000000000002842, -1.850371707708597915E-15, 1.959434878635768681E-15 ) ) ;
#212 = DIRECTION ( 'NONE',  ( -1.000000000000000000, 0.000000000000000000, 0.000000000000000000 ) ) ;
#213 = DIRECTION ( 'NONE',  ( 1.156482317317871725E-16, 1.000000000000000000, -0.000000000000000000 ) ) ;
#214 = AXIS2_PLACEMENT_3D ( 'NONE', #243, #219, #13 ) ;
#215 = CARTESIAN_POINT ( 'NONE',  ( 2.301399811462564920E-14, 199.0000000000000000, 0.000000000000000000 ) ) ;
#216 = PERSON ( 'UNSPECIFIED', 'UNSPECIFIED', 'UNSPECIFIED', ('UNSPECIFIED'), ('UNSPECIFIED'), ('UNSPECIFIED') ) ;
#217 = DIRECTION ( 'NONE',  ( 1.156482317317871725E-16, 1.000000000000000000, -0.000000000000000000 ) ) ;
#218 = FACE_OUTER_BOUND ( 'NONE', #56, .T. ) ;
#219 = DIRECTION ( 'NONE',  ( 1.156482317317871725E-16, 1.000000000000000000, -0.000000000000000000 ) ) ;
#220 = LOCAL_TIME ( 17, 41, 31.00000000000000000, #302 ) ;
#221 = APPROVAL_DATE_TIME ( #91, #120 ) ;
#222 = DIRECTION ( 'NONE',  ( 1.156482317317871725E-16, 1.000000000000000000, -0.000000000000000000 ) ) ;
#223 = AXIS2_PLACEMENT_3D ( 'NONE', #78, #182, #280 ) ;
#224 = CYLINDRICAL_SURFACE ( 'NONE', #162, 16.00000000000002842 ) ;
#225 = CARTESIAN_POINT ( 'NONE',  ( 1.607510421071841767E-14, 139.0000000000000000, 0.000000000000000000 ) ) ;
#226 = DATE_AND_TIME ( #122, #220 ) ;
#227 = ORIENTED_EDGE ( 'NONE', *, *, #132, .F. ) ;
#228 = EDGE_CURVE ( 'NONE', #102, #330, #146, .T. ) ;
#229 = CARTESIAN_POINT ( 'NONE',  ( 0.000000000000000000, 0.000000000000000000, 0.000000000000000000 ) ) ;
#230 = ORIENTED_EDGE ( 'NONE', *, *, #20, .F. ) ;
#231 = EDGE_LOOP ( 'NONE', ( #49, #1, #79, #309 ) ) ;
#232 = AXIS2_PLACEMENT_3D ( 'NONE', #293, #270, #323 ) ;
#233 = CYLINDRICAL_SURFACE ( 'NONE', #223, 15.00000000000001954 ) ;
#234 = APPROVAL ( #177, 'UNSPECIFIED' ) ;
#235 = ORIENTED_EDGE ( 'NONE', *, *, #228, .T. ) ;
#236 = FACE_BOUND ( 'NONE', #19, .T. ) ;
#237 = CARTESIAN_POINT ( 'NONE',  ( -16.00000000000001066, 199.0000000000000000, 0.000000000000000000 ) ) ;
#238 = DIRECTION ( 'NONE',  ( 1.000000000000000000, -1.156482317317871725E-16, 0.000000000000000000 ) ) ;
#239 = DIRECTION ( 'NONE',  ( 1.156482317317871725E-16, 1.000000000000000000, -0.000000000000000000 ) ) ;
#240 = DATE_AND_TIME ( #289, #116 ) ;
#241 = ORIENTED_EDGE ( 'NONE', *, *, #285, .F. ) ;
#242 = PLANE ( 'NONE',  #249 ) ;
#243 = CARTESIAN_POINT ( 'NONE',  ( 0.000000000000000000, 0.000000000000000000, 0.000000000000000000 ) ) ;
#244 = DIRECTION ( 'NONE',  ( 1.156482317317871725E-16, 1.000000000000000000, -0.000000000000000000 ) ) ;
#245 = EDGE_CURVE ( 'NONE', #279, #203, #37, .T. ) ;
#246 = DIRECTION ( 'NONE',  ( 1.156482317317871725E-16, 1.000000000000000000, -0.000000000000000000 ) ) ;
#247 = DIRECTION ( 'NONE',  ( -1.000000000000000000, 1.156482317317871725E-16, 0.000000000000000000 ) ) ;
#248 = PRODUCT ( 'PENTUREUSE-AXE', 'PENTUREUSE-AXE', '', ( #252 ) ) ;
#249 = AXIS2_PLACEMENT_3D ( 'NONE', #114, #284, #167 ) ;
#250 = PERSON_AND_ORGANIZATION_ROLE ( 'creator' ) ;
#251 = ORIENTED_EDGE ( 'NONE', *, *, #126, .F. ) ;
#252 = MECHANICAL_CONTEXT ( 'NONE', #30, 'mechanical' ) ;
#253 = ORIENTED_EDGE ( 'NONE', *, *, #67, .T. ) ;
#254 = CC_DESIGN_DATE_AND_TIME_ASSIGNMENT ( #17, #331, ( #28 ) ) ;
#255 = ORIENTED_EDGE ( 'NONE', *, *, #228, .F. ) ;
#256 = ORIENTED_EDGE ( 'NONE', *, *, #326, .T. ) ;
#257 = DIRECTION ( 'NONE',  ( 1.156482317317871725E-16, 1.000000000000000000, -0.000000000000000000 ) ) ;
#258 = ADVANCED_FACE ( 'NONE', ( #115 ), #174, .T. ) ;
#259 = DIRECTION ( 'NONE',  ( 1.156482317317871725E-16, 1.000000000000000000, -0.000000000000000000 ) ) ;
#260 = CIRCLE ( 'NONE', #3, 6.249999999999999112 ) ;
#261 = DIRECTION ( 'NONE',  ( -1.156482317317871725E-16, -1.000000000000000000, 0.000000000000000000 ) ) ;
#262 = AXIS2_PLACEMENT_3D ( 'NONE', #85, #166, #212 ) ;
#263 = DIRECTION ( 'NONE',  ( -1.000000000000000000, 1.156482317317871725E-16, 0.000000000000000000 ) ) ;
#264 = CC_DESIGN_PERSON_AND_ORGANIZATION_ASSIGNMENT ( #50, #160, ( #200 ) ) ;
#265 = PLANE ( 'NONE',  #193 ) ;
#266 = ORGANIZATION ( 'UNSPECIFIED', 'UNSPECIFIED', '' ) ;
#267 = CARTESIAN_POINT ( 'NONE',  ( 15.00000000000001954, -1.734723475976809855E-15, 1.836970198721032350E-15 ) ) ;
#268 = CARTESIAN_POINT ( 'NONE',  ( 1.283695372222837565E-14, 111.0000000000000000, 0.000000000000000000 ) ) ;
#269 = ADVANCED_FACE ( 'NONE', ( #218 ), #171, .T. ) ;
#270 = DIRECTION ( 'NONE',  ( 1.156482317317871725E-16, 1.000000000000000000, -0.000000000000000000 ) ) ;
#271 = FACE_OUTER_BOUND ( 'NONE', #83, .T. ) ;
#272 =( NAMED_UNIT ( * ) PLANE_ANGLE_UNIT ( ) SI_UNIT ( $, .RADIAN. ) );
#273 = DIRECTION ( 'NONE',  ( 1.000000000000000000, 0.000000000000000000, 0.000000000000000000 ) ) ;
#274 = APPROVAL_ROLE ( '' ) ;
#275 = ORIENTED_EDGE ( 'NONE', *, *, #60, .T. ) ;
#276 = DIRECTION ( 'NONE',  ( 0.000000000000000000, 0.000000000000000000, 1.000000000000000000 ) ) ;
#277 = ORIENTED_EDGE ( 'NONE', *, *, #143, .F. ) ;
#278 = ADVANCED_FACE ( 'NONE', ( #271 ), #15, .T. ) ;
#279 = VERTEX_POINT ( 'NONE', #149 ) ;
#280 = DIRECTION ( 'NONE',  ( -1.000000000000000000, 1.156482317317871725E-16, 0.000000000000000000 ) ) ;
#281 = AXIS2_PLACEMENT_3D ( 'NONE', #140, #259, #190 ) ;
#282 = SECURITY_CLASSIFICATION ( '', '', #136 ) ;
#283 = EDGE_LOOP ( 'NONE', ( #155, #139, #58, #208 ) ) ;
#284 = DIRECTION ( 'NONE',  ( 1.156482317317871725E-16, 1.000000000000000000, -0.000000000000000000 ) ) ;
#285 = EDGE_CURVE ( 'NONE', #205, #24, #107, .T. ) ;
#286 = DIRECTION ( 'NONE',  ( -1.000000000000000000, 0.000000000000000000, 0.000000000000000000 ) ) ;
#287 = LOCAL_TIME ( 17, 41, 31.00000000000000000, #150 ) ;
#288 = PLANE ( 'NONE',  #207 ) ;
#289 = CALENDAR_DATE ( 2024, 29, 6 ) ;
#290 = FACE_OUTER_BOUND ( 'NONE', #159, .T. ) ;
#291 = PERSON_AND_ORGANIZATION ( #216, #266 ) ;
#292 = CARTESIAN_POINT ( 'NONE',  ( -2.073049592916818170E-31, 139.0000000000000000, 0.000000000000000000 ) ) ;
#293 = CARTESIAN_POINT ( 'NONE',  ( 0.000000000000000000, 0.000000000000000000, 0.000000000000000000 ) ) ;
#294 = DIRECTION ( 'NONE',  ( 1.156482317317871725E-16, 1.000000000000000000, -0.000000000000000000 ) ) ;
#295 = LINE ( 'NONE', #267, #179 ) ;
#296 =( LENGTH_UNIT ( ) NAMED_UNIT ( * ) SI_UNIT ( .MILLI., .METRE. ) );
#297 = CC_DESIGN_APPROVAL ( #234, ( #28 ) ) ;
#298 = PRODUCT_RELATED_PRODUCT_CATEGORY ( 'detail', '', ( #248 ) ) ;
#299 = DIRECTION ( 'NONE',  ( -1.000000000000000000, 0.000000000000000000, 0.000000000000000000 ) ) ;
#300 = PERSON_AND_ORGANIZATION ( #216, #266 ) ;
#301 = EDGE_LOOP ( 'NONE', ( #53, #181 ) ) ;
#302 = COORDINATED_UNIVERSAL_TIME_OFFSET ( 1, 0, .AHEAD. ) ;
#303 = AXIS2_PLACEMENT_3D ( 'NONE', #148, #170, #45 ) ;
#304 = ORIENTED_EDGE ( 'NONE', *, *, #126, .T. ) ;
#305 = APPROVAL_PERSON_ORGANIZATION ( #291, #120, #147 ) ;
#306 = EDGE_CURVE ( 'NONE', #330, #102, #260, .T. ) ;
#307 = VERTEX_POINT ( 'NONE', #119 ) ;
#308 = AXIS2_PLACEMENT_3D ( 'NONE', #33, #108, #315 ) ;
#309 = ORIENTED_EDGE ( 'NONE', *, *, #245, .F. ) ;
#310 = ORIENTED_EDGE ( 'NONE', *, *, #306, .T. ) ;
#311 = EDGE_CURVE ( 'NONE', #307, #70, #128, .T. ) ;
#312 = CARTESIAN_POINT ( 'NONE',  ( 6.250000000000038192, 111.0000000000000000, 7.654042494670996063E-16 ) ) ;
#313 = APPROVAL_STATUS ( 'not_yet_approved' ) ;
#314 = FACE_OUTER_BOUND ( 'NONE', #231, .T. ) ;
#315 = DIRECTION ( 'NONE',  ( -1.000000000000000000, 0.000000000000000000, 0.000000000000000000 ) ) ;
#316 = EDGE_CURVE ( 'NONE', #205, #279, #295, .T. ) ;
#317 = CIRCLE ( 'NONE', #42, 15.00000000000002487 ) ;
#318 = LOCAL_TIME ( 17, 41, 31.00000000000000000, #176 ) ;
#319 = CARTESIAN_POINT ( 'NONE',  ( 15.00000000000002842, 111.0000000000000000, 1.836970198721031955E-15 ) ) ;
#320 = CARTESIAN_POINT ( 'NONE',  ( 6.249999999999999112, -1.445602121631270157E-15, 7.654042494670964509E-16 ) ) ;
#321 = ADVANCED_FACE ( 'NONE', ( #44 ), #224, .T. ) ;
#322 = VECTOR ( 'NONE', #257, 1000.000000000000000 ) ;
#323 = DIRECTION ( 'NONE',  ( -1.000000000000000000, 1.156482317317871725E-16, 0.000000000000000000 ) ) ;
#324 = DIRECTION ( 'NONE',  ( -1.000000000000000000, 1.156482317317871725E-16, 0.000000000000000000 ) ) ;
#325 = DIRECTION ( 'NONE',  ( 1.156482317317871725E-16, 1.000000000000000000, -0.000000000000000000 ) ) ;
#326 = EDGE_CURVE ( 'NONE', #330, #100, #40, .T. ) ;
#327 = CIRCLE ( 'NONE', #25, 16.00000000000003553 ) ;
#328 = CC_DESIGN_APPROVAL ( #197, ( #200 ) ) ;
#329 = PERSON_AND_ORGANIZATION ( #216, #266 ) ;
#330 = VERTEX_POINT ( 'NONE', #169 ) ;
#331 = DATE_TIME_ROLE ( 'creation_date' ) ;
#332 = EDGE_CURVE ( 'NONE', #203, #279, #317, .T. ) ;
#333 = EDGE_LOOP ( 'NONE', ( #26, #304 ) ) ;
#334 = AXIS2_PLACEMENT_3D ( 'NONE', #36, #12, #195 ) ;
#335 = ORIENTED_EDGE ( 'NONE', *, *, #316, .T. ) ;
ENDSEC;
END-ISO-10303-21;
