ISO-10303-21;
HEADER;
FILE_DESCRIPTION (( 'STEP AP214' ),
    '1' );
FILE_NAME ('BRCP01-I01-06-A-axe entretoises tiroir.STEP',
    '2024-07-24T14:59:00',
    ( 'T' ),
    ( 'F' ),
    'SwSTEP 2.0',
    'SolidWorks 2001340',
    '' );
FILE_SCHEMA (( 'AUTOMOTIVE_DESIGN' ));
ENDSEC;

DATA;
#1 = ORIENTED_EDGE ( 'NONE', *, *, #336, .T. ) ;
#2 = ORIENTED_EDGE ( 'NONE', *, *, #209, .T. ) ;
#3 = EDGE_LOOP ( 'NONE', ( #5, #382, #32, #72 ) ) ;
#4 = EDGE_CURVE ( 'NONE', #10, #31, #108, .T. ) ;
#5 = ORIENTED_EDGE ( 'NONE', *, *, #265, .T. ) ;
#6 = EDGE_LOOP ( 'NONE', ( #30, #64, #1, #36 ) ) ;
#7 = EDGE_LOOP ( 'NONE', ( #47, #86, #228, #23 ) ) ;
#8 = EDGE_LOOP ( 'NONE', ( #15, #85 ) ) ;
#9 = ORIENTED_EDGE ( 'NONE', *, *, #52, .T. ) ;
#10 = VERTEX_POINT ( 'NONE', #167 ) ;
#11 = EDGE_CURVE ( 'NONE', #19, #35, #178, .T. ) ;
#12 = EDGE_CURVE ( 'NONE', #68, #27, #183, .T. ) ;
#13 = ORIENTED_EDGE ( 'NONE', *, *, #52, .F. ) ;
#14 = ORIENTED_EDGE ( 'NONE', *, *, #381, .F. ) ;
#15 = ORIENTED_EDGE ( 'NONE', *, *, #46, .F. ) ;
#16 = ORIENTED_EDGE ( 'NONE', *, *, #71, .F. ) ;
#17 = EDGE_LOOP ( 'NONE', ( #351, #337, #70, #383 ) ) ;
#18 = EDGE_LOOP ( 'NONE', ( #38, #9, #14, #62 ) ) ;
#19 = VERTEX_POINT ( 'NONE', #220 ) ;
#20 = ORIENTED_EDGE ( 'NONE', *, *, #283, .F. ) ;
#21 = EDGE_LOOP ( 'NONE', ( #247, #282, #84, #41 ) ) ;
#22 = EDGE_LOOP ( 'NONE', ( #63, #123, #39, #69 ) ) ;
#23 = ORIENTED_EDGE ( 'NONE', *, *, #60, .F. ) ;
#24 = ORIENTED_EDGE ( 'NONE', *, *, #381, .T. ) ;
#25 = EDGE_LOOP ( 'NONE', ( #33, #2 ) ) ;
#26 = ORIENTED_EDGE ( 'NONE', *, *, #12, .F. ) ;
#27 = VERTEX_POINT ( 'NONE', #225 ) ;
#28 = EDGE_CURVE ( 'NONE', #67, #350, #226, .T. ) ;
#29 = ORIENTED_EDGE ( 'NONE', *, *, #42, .F. ) ;
#30 = ORIENTED_EDGE ( 'NONE', *, *, #40, .F. ) ;
#31 = VERTEX_POINT ( 'NONE', #233 ) ;
#32 = ORIENTED_EDGE ( 'NONE', *, *, #4, .T. ) ;
#33 = ORIENTED_EDGE ( 'NONE', *, *, #55, .T. ) ;
#34 = ORIENTED_EDGE ( 'NONE', *, *, #55, .F. ) ;
#35 = VERTEX_POINT ( 'NONE', #245 ) ;
#36 = ORIENTED_EDGE ( 'NONE', *, *, #60, .T. ) ;
#37 = ADVANCED_FACE ( 'NONE', ( #268 ), #269, .T. ) ;
#38 = ORIENTED_EDGE ( 'NONE', *, *, #71, .T. ) ;
#39 = ORIENTED_EDGE ( 'NONE', *, *, #42, .T. ) ;
#40 = EDGE_CURVE ( 'NONE', #378, #10, #286, .T. ) ;
#41 = ORIENTED_EDGE ( 'NONE', *, *, #74, .F. ) ;
#42 = EDGE_CURVE ( 'NONE', #35, #375, #302, .T. ) ;
#43 = ADVANCED_FACE ( 'NONE', ( #316 ), #320, .T. ) ;
#44 = VERTEX_POINT ( 'NONE', #325 ) ;
#45 = ORIENTED_EDGE ( 'NONE', *, *, #11, .F. ) ;
#46 = EDGE_CURVE ( 'NONE', #375, #377, #327, .T. ) ;
#47 = ORIENTED_EDGE ( 'NONE', *, *, #385, .F. ) ;
#48 = ADVANCED_FACE ( 'NONE', ( #87 ), #88, .T. ) ;
#49 = ADVANCED_FACE ( 'NONE', ( #98 ), #99, .T. ) ;
#50 = ORIENTED_EDGE ( 'NONE', *, *, #12, .T. ) ;
#51 = VERTEX_POINT ( 'NONE', #113 ) ;
#52 = EDGE_CURVE ( 'NONE', #248, #68, #118, .T. ) ;
#53 = ORIENTED_EDGE ( 'NONE', *, *, #372, .T. ) ;
#54 = ORIENTED_EDGE ( 'NONE', *, *, #191, .T. ) ;
#55 = EDGE_CURVE ( 'NONE', #67, #57, #131, .T. ) ;
#56 = ADVANCED_FACE ( 'NONE', ( #136 ), #137, .F. ) ;
#57 = VERTEX_POINT ( 'NONE', #144 ) ;
#58 = ORIENTED_EDGE ( 'NONE', *, *, #191, .F. ) ;
#59 = ORIENTED_EDGE ( 'NONE', *, *, #246, .T. ) ;
#60 = EDGE_CURVE ( 'NONE', #31, #10, #146, .T. ) ;
#61 = MANIFOLD_SOLID_BREP ( 'NONE', #76 ) ;
#62 = ORIENTED_EDGE ( 'NONE', *, *, #105, .F. ) ;
#63 = ORIENTED_EDGE ( 'NONE', *, *, #353, .F. ) ;
#64 = ORIENTED_EDGE ( 'NONE', *, *, #283, .T. ) ;
#65 = ORIENTED_EDGE ( 'NONE', *, *, #317, .T. ) ;
#66 = ADVANCED_FACE ( 'NONE', ( #188 ), #189, .T. ) ;
#67 = VERTEX_POINT ( 'NONE', #196 ) ;
#68 = VERTEX_POINT ( 'NONE', #197 ) ;
#69 = ORIENTED_EDGE ( 'NONE', *, *, #46, .T. ) ;
#70 = ORIENTED_EDGE ( 'NONE', *, *, #265, .F. ) ;
#71 = EDGE_CURVE ( 'NONE', #141, #248, #198, .T. ) ;
#72 = ORIENTED_EDGE ( 'NONE', *, *, #336, .F. ) ;
#73 = ORIENTED_EDGE ( 'NONE', *, *, #353, .T. ) ;
#74 = EDGE_CURVE ( 'NONE', #51, #10, #207, .T. ) ;
#75 = ADVANCED_FACE ( 'NONE', ( #214 ), #215, .T. ) ;
#76 = CLOSED_SHELL ( 'NONE', ( #352, #376, #319, #210, #75, #48, #66, #37, #43, #192, #370, #300, #56, #49 ) ) ;
#77 = FACE_OUTER_BOUND ( 'NONE', #371, .T. ) ;
#78 = FACE_BOUND ( 'NONE', #104, .T. ) ;
#79 = PLANE ( 'NONE',  #80 ) ;
#80 = AXIS2_PLACEMENT_3D ( 'NONE', #81, #82, #83 ) ;
#81 = CARTESIAN_POINT ( 'NONE',  ( 0.0000000000000000000, 0.0000000000000000000, -148.5000000000000000 ) ) ;
#82 = DIRECTION ( 'NONE',  ( 0.0000000000000000000, 0.0000000000000000000, 1.000000000000000000 ) ) ;
#83 = DIRECTION ( 'NONE',  ( 1.000000000000000000, 0.0000000000000000000, 0.0000000000000000000 ) ) ;
#84 = ORIENTED_EDGE ( 'NONE', *, *, #4, .F. ) ;
#85 = ORIENTED_EDGE ( 'NONE', *, *, #317, .F. ) ;
#86 = ORIENTED_EDGE ( 'NONE', *, *, #246, .F. ) ;
#87 = FACE_OUTER_BOUND ( 'NONE', #103, .T. ) ;
#88 = CONICAL_SURFACE ( 'NONE', #89, 3.500000000000000400, 0.7853981633974473900 ) ;
#89 = AXIS2_PLACEMENT_3D ( 'NONE', #90, #91, #92 ) ;
#90 = CARTESIAN_POINT ( 'NONE',  ( 0.0000000000000000000, 0.0000000000000000000, 148.5000000000000000 ) ) ;
#91 = DIRECTION ( 'NONE',  ( 0.0000000000000000000, 0.0000000000000000000, -1.000000000000000000 ) ) ;
#92 = DIRECTION ( 'NONE',  ( -1.000000000000000000, 0.0000000000000000000, 0.0000000000000000000 ) ) ;
#93 = CIRCLE ( 'NONE', #94, 2.100000000000000100 ) ;
#94 = AXIS2_PLACEMENT_3D ( 'NONE', #95, #96, #97 ) ;
#95 = CARTESIAN_POINT ( 'NONE',  ( 0.0000000000000000000, 0.0000000000000000000, 123.5000000000000000 ) ) ;
#96 = DIRECTION ( 'NONE',  ( 0.0000000000000000000, 0.0000000000000000000, 1.000000000000000000 ) ) ;
#97 = DIRECTION ( 'NONE',  ( 1.000000000000000000, 0.0000000000000000000, 0.0000000000000000000 ) ) ;
#98 = FACE_OUTER_BOUND ( 'NONE', #106, .T. ) ;
#99 = PLANE ( 'NONE',  #100 ) ;
#100 = AXIS2_PLACEMENT_3D ( 'NONE', #101, #102, #107 ) ;
#101 = CARTESIAN_POINT ( 'NONE',  ( 0.0000000000000000000, 0.0000000000000000000, -123.5000000000000000 ) ) ;
#102 = DIRECTION ( 'NONE',  ( 0.0000000000000000000, 0.0000000000000000000, -1.000000000000000000 ) ) ;
#103 = EDGE_LOOP ( 'NONE', ( #379, #34, #211, #20 ) ) ;
#104 = EDGE_LOOP ( 'NONE', ( #24, #50 ) ) ;
#105 = EDGE_CURVE ( 'NONE', #141, #27, #221, .T. ) ;
#106 = EDGE_LOOP ( 'NONE', ( #16, #58 ) ) ;
#107 = DIRECTION ( 'NONE',  ( 1.000000000000000000, 0.0000000000000000000, 0.0000000000000000000 ) ) ;
#108 = CIRCLE ( 'NONE', #109, 4.000000000000000000 ) ;
#109 = AXIS2_PLACEMENT_3D ( 'NONE', #110, #111, #112 ) ;
#110 = CARTESIAN_POINT ( 'NONE',  ( 0.0000000000000000000, 0.0000000000000000000, -148.0000000000000000 ) ) ;
#111 = DIRECTION ( 'NONE',  ( 0.0000000000000000000, 0.0000000000000000000, 1.000000000000000000 ) ) ;
#112 = DIRECTION ( 'NONE',  ( 1.000000000000000000, 0.0000000000000000000, 0.0000000000000000000 ) ) ;
#113 = CARTESIAN_POINT ( 'NONE',  ( 3.500000000000013800, 0.0000000000000000000, -148.5000000000000000 ) ) ;
#114 = LINE ( 'NONE', #115, #116 ) ;
#115 = CARTESIAN_POINT ( 'NONE',  ( 3.500000000000000400, 4.286122238378320900E-016, 148.5000000000000000 ) ) ;
#116 = VECTOR ( 'NONE', #117, 999.9999999999998900 ) ;
#117 = DIRECTION ( 'NONE',  ( 0.7071067811865469100, 8.659274570719350500E-017, -0.7071067811865482400 ) ) ;
#118 = LINE ( 'NONE', #119, #120 ) ;
#119 = CARTESIAN_POINT ( 'NONE',  ( 2.100000000000000100, 2.571673343026992500E-016, -123.5000000000000000 ) ) ;
#120 = VECTOR ( 'NONE', #121, 1000.000000000000000 ) ;
#121 = DIRECTION ( 'NONE',  ( 0.0000000000000000000, 0.0000000000000000000, -1.000000000000000000 ) ) ;
#122 = CARTESIAN_POINT ( 'NONE',  ( 2.100000000000000100, 0.0000000000000000000, 148.5000000000000000 ) ) ;
#123 = ORIENTED_EDGE ( 'NONE', *, *, #372, .F. ) ;
#124 = FACE_OUTER_BOUND ( 'NONE', #22, .T. ) ;
#125 = CYLINDRICAL_SURFACE ( 'NONE', #126, 2.100000000000000100 ) ;
#126 = AXIS2_PLACEMENT_3D ( 'NONE', #127, #128, #129 ) ;
#127 = CARTESIAN_POINT ( 'NONE',  ( 0.0000000000000000000, 0.0000000000000000000, 123.5000000000000000 ) ) ;
#128 = DIRECTION ( 'NONE',  ( 0.0000000000000000000, 0.0000000000000000000, 1.000000000000000000 ) ) ;
#129 = DIRECTION ( 'NONE',  ( 1.000000000000000000, 0.0000000000000000000, 0.0000000000000000000 ) ) ;
#130 = CARTESIAN_POINT ( 'NONE',  ( -2.100000000000000100, 2.571673343026992500E-016, 148.5000000000000000 ) ) ;
#131 = CIRCLE ( 'NONE', #132, 3.500000000000000400 ) ;
#132 = AXIS2_PLACEMENT_3D ( 'NONE', #133, #134, #135 ) ;
#133 = CARTESIAN_POINT ( 'NONE',  ( 0.0000000000000000000, 0.0000000000000000000, 148.5000000000000000 ) ) ;
#134 = DIRECTION ( 'NONE',  ( 0.0000000000000000000, 0.0000000000000000000, 1.000000000000000000 ) ) ;
#135 = DIRECTION ( 'NONE',  ( 1.000000000000000000, 0.0000000000000000000, 0.0000000000000000000 ) ) ;
#136 = FACE_OUTER_BOUND ( 'NONE', #140, .T. ) ;
#137 = CYLINDRICAL_SURFACE ( 'NONE', #138, 2.100000000000000100 ) ;
#138 = AXIS2_PLACEMENT_3D ( 'NONE', #139, #142, #143 ) ;
#139 = CARTESIAN_POINT ( 'NONE',  ( 0.0000000000000000000, 0.0000000000000000000, -123.5000000000000000 ) ) ;
#140 = EDGE_LOOP ( 'NONE', ( #13, #54, #229, #26 ) ) ;
#141 = VERTEX_POINT ( 'NONE', #232 ) ;
#142 = DIRECTION ( 'NONE',  ( 0.0000000000000000000, 0.0000000000000000000, -1.000000000000000000 ) ) ;
#143 = DIRECTION ( 'NONE',  ( -1.000000000000000000, 0.0000000000000000000, 0.0000000000000000000 ) ) ;
#144 = CARTESIAN_POINT ( 'NONE',  ( 3.500000000000000400, 4.592273826833915700E-016, 148.5000000000000000 ) ) ;
#145 = CARTESIAN_POINT ( 'NONE',  ( 4.000000000000000000, 4.898425415289509000E-016, 148.0000000000000000 ) ) ;
#146 = CIRCLE ( 'NONE', #147, 4.000000000000000000 ) ;
#147 = AXIS2_PLACEMENT_3D ( 'NONE', #148, #149, #150 ) ;
#148 = CARTESIAN_POINT ( 'NONE',  ( 0.0000000000000000000, 0.0000000000000000000, -148.0000000000000000 ) ) ;
#149 = DIRECTION ( 'NONE',  ( 0.0000000000000000000, 0.0000000000000000000, 1.000000000000000000 ) ) ;
#150 = DIRECTION ( 'NONE',  ( 1.000000000000000000, 0.0000000000000000000, 0.0000000000000000000 ) ) ;
#151 = COLOUR_RGB ( '',0.7529411764705882200, 0.7529411764705882200, 0.7529411764705882200 ) ;
#152 = FILL_AREA_STYLE_COLOUR ( '', #151 ) ;
#153 = FILL_AREA_STYLE ('',( #152 ) ) ;
#154 = SURFACE_STYLE_FILL_AREA ( #153 ) ;
#155 = SURFACE_SIDE_STYLE ('',( #154 ) ) ;
#156 = SURFACE_STYLE_USAGE ( .BOTH. , #155 ) ;
#157 = PRESENTATION_STYLE_ASSIGNMENT (( #156 ) ) ;
#158 = ORIENTED_EDGE ( 'NONE', *, *, #380, .T. ) ;
#159 = STYLED_ITEM ( 'NONE', ( #157 ), #61 ) ;
#160 = PRESENTATION_LAYER_ASSIGNMENT (  '', '', ( #159 ) ) ;
#161 = MECHANICAL_DESIGN_GEOMETRIC_PRESENTATION_REPRESENTATION (  '', ( #159 ), #166 ) ;
#162 =( LENGTH_UNIT ( ) NAMED_UNIT ( * ) SI_UNIT ( .MILLI., .METRE. ) );
#163 =( NAMED_UNIT ( * ) PLANE_ANGLE_UNIT ( ) SI_UNIT ( $, .RADIAN. ) );
#164 =( NAMED_UNIT ( * ) SI_UNIT ( $, .STERADIAN. ) SOLID_ANGLE_UNIT ( ) );
#165 = UNCERTAINTY_MEASURE_WITH_UNIT (LENGTH_MEASURE( 1.000000000000000100E-005 ), #162, 'distance_accuracy_value', 'NONE');
#166 =( GEOMETRIC_REPRESENTATION_CONTEXT ( 3 ) GLOBAL_UNCERTAINTY_ASSIGNED_CONTEXT ( ( #165 ) ) GLOBAL_UNIT_ASSIGNED_CONTEXT ( ( #162, #163, #164 ) ) REPRESENTATION_CONTEXT ( 'NONE', 'WORKASPACE' ) );
#167 = CARTESIAN_POINT ( 'NONE',  ( 4.000000000000000000, 4.898425415289509000E-016, -148.0000000000000000 ) ) ;
#168 = CIRCLE ( 'NONE', #169, 3.500000000000013800 ) ;
#169 = AXIS2_PLACEMENT_3D ( 'NONE', #170, #171, #172 ) ;
#170 = CARTESIAN_POINT ( 'NONE',  ( 0.0000000000000000000, 0.0000000000000000000, -148.5000000000000000 ) ) ;
#171 = DIRECTION ( 'NONE',  ( 0.0000000000000000000, 0.0000000000000000000, -1.000000000000000000 ) ) ;
#172 = DIRECTION ( 'NONE',  ( 1.000000000000000000, 0.0000000000000000000, 0.0000000000000000000 ) ) ;
#173 = CIRCLE ( 'NONE', #174, 2.100000000000000100 ) ;
#174 = AXIS2_PLACEMENT_3D ( 'NONE', #175, #176, #177 ) ;
#175 = CARTESIAN_POINT ( 'NONE',  ( 0.0000000000000000000, 0.0000000000000000000, -148.5000000000000000 ) ) ;
#176 = DIRECTION ( 'NONE',  ( 0.0000000000000000000, 0.0000000000000000000, 1.000000000000000000 ) ) ;
#177 = DIRECTION ( 'NONE',  ( 1.000000000000000000, 0.0000000000000000000, 0.0000000000000000000 ) ) ;
#178 = CIRCLE ( 'NONE', #179, 2.100000000000000100 ) ;
#179 = AXIS2_PLACEMENT_3D ( 'NONE', #180, #181, #182 ) ;
#180 = CARTESIAN_POINT ( 'NONE',  ( 0.0000000000000000000, 0.0000000000000000000, 123.5000000000000000 ) ) ;
#181 = DIRECTION ( 'NONE',  ( 0.0000000000000000000, 0.0000000000000000000, 1.000000000000000000 ) ) ;
#182 = DIRECTION ( 'NONE',  ( 1.000000000000000000, 0.0000000000000000000, 0.0000000000000000000 ) ) ;
#183 = CIRCLE ( 'NONE', #184, 2.100000000000000100 ) ;
#184 = AXIS2_PLACEMENT_3D ( 'NONE', #185, #186, #187 ) ;
#185 = CARTESIAN_POINT ( 'NONE',  ( 0.0000000000000000000, 0.0000000000000000000, -148.5000000000000000 ) ) ;
#186 = DIRECTION ( 'NONE',  ( 0.0000000000000000000, 0.0000000000000000000, 1.000000000000000000 ) ) ;
#187 = DIRECTION ( 'NONE',  ( 1.000000000000000000, 0.0000000000000000000, 0.0000000000000000000 ) ) ;
#188 = FACE_OUTER_BOUND ( 'NONE', #3, .T. ) ;
#189 = CYLINDRICAL_SURFACE ( 'NONE', #190, 4.000000000000000000 ) ;
#190 = AXIS2_PLACEMENT_3D ( 'NONE', #193, #194, #195 ) ;
#191 = EDGE_CURVE ( 'NONE', #248, #141, #234, .T. ) ;
#192 = ADVANCED_FACE ( 'NONE', ( #239 ), #240, .T. ) ;
#193 = CARTESIAN_POINT ( 'NONE',  ( 0.0000000000000000000, 0.0000000000000000000, 148.5000000000000000 ) ) ;
#194 = DIRECTION ( 'NONE',  ( 0.0000000000000000000, 0.0000000000000000000, -1.000000000000000000 ) ) ;
#195 = DIRECTION ( 'NONE',  ( -1.000000000000000000, 0.0000000000000000000, 0.0000000000000000000 ) ) ;
#196 = CARTESIAN_POINT ( 'NONE',  ( -3.500000000000000400, 0.0000000000000000000, 148.5000000000000000 ) ) ;
#197 = CARTESIAN_POINT ( 'NONE',  ( 2.100000000000000100, 2.571673343026992500E-016, -148.5000000000000000 ) ) ;
#198 = CIRCLE ( 'NONE', #199, 2.100000000000000100 ) ;
#199 = AXIS2_PLACEMENT_3D ( 'NONE', #200, #201, #202 ) ;
#200 = CARTESIAN_POINT ( 'NONE',  ( 0.0000000000000000000, 0.0000000000000000000, -123.5000000000000000 ) ) ;
#201 = DIRECTION ( 'NONE',  ( 0.0000000000000000000, 0.0000000000000000000, 1.000000000000000000 ) ) ;
#202 = DIRECTION ( 'NONE',  ( 1.000000000000000000, 0.0000000000000000000, 0.0000000000000000000 ) ) ;
#203 = LINE ( 'NONE', #204, #205 ) ;
#204 = CARTESIAN_POINT ( 'NONE',  ( -4.000000000000000000, 4.898425415289509000E-016, -148.0000000000000000 ) ) ;
#205 = VECTOR ( 'NONE', #206, 1000.000000000000000 ) ;
#206 = DIRECTION ( 'NONE',  ( -0.7071067811865374700, 8.659274570719232200E-017, 0.7071067811865576800 ) ) ;
#207 = LINE ( 'NONE', #208, #212 ) ;
#208 = CARTESIAN_POINT ( 'NONE',  ( 4.000000000000000000, 0.0000000000000000000, -148.0000000000000000 ) ) ;
#209 = EDGE_CURVE ( 'NONE', #57, #67, #249, .T. ) ;
#210 = ADVANCED_FACE ( 'NONE', ( #254, #255 ), #256, .T. ) ;
#211 = ORIENTED_EDGE ( 'NONE', *, *, #28, .T. ) ;
#212 = VECTOR ( 'NONE', #213, 1000.000000000000000 ) ;
#213 = DIRECTION ( 'NONE',  ( 0.7071067811865374700, 0.0000000000000000000, 0.7071067811865576800 ) ) ;
#214 = FACE_OUTER_BOUND ( 'NONE', #17, .T. ) ;
#215 = CONICAL_SURFACE ( 'NONE', #216, 3.500000000000000400, 0.7853981633974473900 ) ;
#216 = AXIS2_PLACEMENT_3D ( 'NONE', #217, #218, #219 ) ;
#217 = CARTESIAN_POINT ( 'NONE',  ( 0.0000000000000000000, 0.0000000000000000000, 148.5000000000000000 ) ) ;
#218 = DIRECTION ( 'NONE',  ( 0.0000000000000000000, 0.0000000000000000000, -1.000000000000000000 ) ) ;
#219 = DIRECTION ( 'NONE',  ( -1.000000000000000000, 0.0000000000000000000, 0.0000000000000000000 ) ) ;
#220 = CARTESIAN_POINT ( 'NONE',  ( -2.100000000000000100, 2.571673343026992500E-016, 123.5000000000000000 ) ) ;
#221 = LINE ( 'NONE', #222, #223 ) ;
#222 = CARTESIAN_POINT ( 'NONE',  ( -2.100000000000000100, 0.0000000000000000000, -123.5000000000000000 ) ) ;
#223 = VECTOR ( 'NONE', #224, 1000.000000000000000 ) ;
#224 = DIRECTION ( 'NONE',  ( 0.0000000000000000000, 0.0000000000000000000, -1.000000000000000000 ) ) ;
#225 = CARTESIAN_POINT ( 'NONE',  ( -2.100000000000000100, 0.0000000000000000000, -148.5000000000000000 ) ) ;
#226 = LINE ( 'NONE', #227, #230 ) ;
#227 = CARTESIAN_POINT ( 'NONE',  ( -3.500000000000000400, 0.0000000000000000000, 148.5000000000000000 ) ) ;
#228 = ORIENTED_EDGE ( 'NONE', *, *, #74, .T. ) ;
#229 = ORIENTED_EDGE ( 'NONE', *, *, #105, .T. ) ;
#230 = VECTOR ( 'NONE', #231, 999.9999999999998900 ) ;
#231 = DIRECTION ( 'NONE',  ( -0.7071067811865469100, 0.0000000000000000000, -0.7071067811865482400 ) ) ;
#232 = CARTESIAN_POINT ( 'NONE',  ( -2.100000000000000100, 0.0000000000000000000, -123.5000000000000000 ) ) ;
#233 = CARTESIAN_POINT ( 'NONE',  ( -4.000000000000000000, 0.0000000000000000000, -148.0000000000000000 ) ) ;
#234 = CIRCLE ( 'NONE', #235, 2.100000000000000100 ) ;
#235 = AXIS2_PLACEMENT_3D ( 'NONE', #236, #237, #238 ) ;
#236 = CARTESIAN_POINT ( 'NONE',  ( 0.0000000000000000000, 0.0000000000000000000, -123.5000000000000000 ) ) ;
#237 = DIRECTION ( 'NONE',  ( 0.0000000000000000000, 0.0000000000000000000, 1.000000000000000000 ) ) ;
#238 = DIRECTION ( 'NONE',  ( 1.000000000000000000, 0.0000000000000000000, 0.0000000000000000000 ) ) ;
#239 = FACE_OUTER_BOUND ( 'NONE', #7, .T. ) ;
#240 = CONICAL_SURFACE ( 'NONE', #241, 4.000000000000000000, 0.7853981633974340700 ) ;
#241 = AXIS2_PLACEMENT_3D ( 'NONE', #242, #243, #244 ) ;
#242 = CARTESIAN_POINT ( 'NONE',  ( 0.0000000000000000000, 0.0000000000000000000, -148.0000000000000000 ) ) ;
#243 = DIRECTION ( 'NONE',  ( 0.0000000000000000000, 0.0000000000000000000, 1.000000000000000000 ) ) ;
#244 = DIRECTION ( 'NONE',  ( 1.000000000000000000, 0.0000000000000000000, 0.0000000000000000000 ) ) ;
#245 = CARTESIAN_POINT ( 'NONE',  ( 2.100000000000000100, 0.0000000000000000000, 123.5000000000000000 ) ) ;
#246 = EDGE_CURVE ( 'NONE', #51, #44, #261, .T. ) ;
#247 = ORIENTED_EDGE ( 'NONE', *, *, #380, .F. ) ;
#248 = VERTEX_POINT ( 'NONE', #267 ) ;
#249 = CIRCLE ( 'NONE', #250, 3.500000000000000400 ) ;
#250 = AXIS2_PLACEMENT_3D ( 'NONE', #251, #252, #253 ) ;
#251 = CARTESIAN_POINT ( 'NONE',  ( 0.0000000000000000000, 0.0000000000000000000, 148.5000000000000000 ) ) ;
#252 = DIRECTION ( 'NONE',  ( 0.0000000000000000000, 0.0000000000000000000, 1.000000000000000000 ) ) ;
#253 = DIRECTION ( 'NONE',  ( 1.000000000000000000, 0.0000000000000000000, 0.0000000000000000000 ) ) ;
#254 = FACE_OUTER_BOUND ( 'NONE', #25, .T. ) ;
#255 = FACE_BOUND ( 'NONE', #8, .T. ) ;
#256 = PLANE ( 'NONE',  #257 ) ;
#257 = AXIS2_PLACEMENT_3D ( 'NONE', #258, #259, #260 ) ;
#258 = CARTESIAN_POINT ( 'NONE',  ( 0.0000000000000000000, 0.0000000000000000000, 148.5000000000000000 ) ) ;
#259 = DIRECTION ( 'NONE',  ( 0.0000000000000000000, 0.0000000000000000000, 1.000000000000000000 ) ) ;
#260 = DIRECTION ( 'NONE',  ( 1.000000000000000000, 0.0000000000000000000, 0.0000000000000000000 ) ) ;
#261 = CIRCLE ( 'NONE', #262, 3.500000000000013800 ) ;
#262 = AXIS2_PLACEMENT_3D ( 'NONE', #263, #264, #266 ) ;
#263 = CARTESIAN_POINT ( 'NONE',  ( 0.0000000000000000000, 0.0000000000000000000, -148.5000000000000000 ) ) ;
#264 = DIRECTION ( 'NONE',  ( 0.0000000000000000000, 0.0000000000000000000, -1.000000000000000000 ) ) ;
#265 = EDGE_CURVE ( 'NONE', #350, #378, #274, .T. ) ;
#266 = DIRECTION ( 'NONE',  ( 1.000000000000000000, 0.0000000000000000000, 0.0000000000000000000 ) ) ;
#267 = CARTESIAN_POINT ( 'NONE',  ( 2.100000000000000100, 2.571673343026992500E-016, -123.5000000000000000 ) ) ;
#268 = FACE_OUTER_BOUND ( 'NONE', #6, .T. ) ;
#269 = CYLINDRICAL_SURFACE ( 'NONE', #270, 4.000000000000000000 ) ;
#270 = AXIS2_PLACEMENT_3D ( 'NONE', #271, #272, #273 ) ;
#271 = CARTESIAN_POINT ( 'NONE',  ( 0.0000000000000000000, 0.0000000000000000000, 148.5000000000000000 ) ) ;
#272 = DIRECTION ( 'NONE',  ( 0.0000000000000000000, 0.0000000000000000000, -1.000000000000000000 ) ) ;
#273 = DIRECTION ( 'NONE',  ( -1.000000000000000000, 0.0000000000000000000, 0.0000000000000000000 ) ) ;
#274 = CIRCLE ( 'NONE', #275, 4.000000000000000000 ) ;
#275 = AXIS2_PLACEMENT_3D ( 'NONE', #276, #277, #278 ) ;
#276 = CARTESIAN_POINT ( 'NONE',  ( 0.0000000000000000000, 0.0000000000000000000, 148.0000000000000000 ) ) ;
#277 = DIRECTION ( 'NONE',  ( 0.0000000000000000000, 0.0000000000000000000, -1.000000000000000000 ) ) ;
#278 = DIRECTION ( 'NONE',  ( 1.000000000000000000, 0.0000000000000000000, 0.0000000000000000000 ) ) ;
#279 = CIRCLE ( 'NONE', #280, 4.000000000000000000 ) ;
#280 = AXIS2_PLACEMENT_3D ( 'NONE', #281, #284, #285 ) ;
#281 = CARTESIAN_POINT ( 'NONE',  ( 0.0000000000000000000, 0.0000000000000000000, 148.0000000000000000 ) ) ;
#282 = ORIENTED_EDGE ( 'NONE', *, *, #385, .T. ) ;
#283 = EDGE_CURVE ( 'NONE', #378, #350, #279, .T. ) ;
#284 = DIRECTION ( 'NONE',  ( 0.0000000000000000000, 0.0000000000000000000, -1.000000000000000000 ) ) ;
#285 = DIRECTION ( 'NONE',  ( 1.000000000000000000, 0.0000000000000000000, 0.0000000000000000000 ) ) ;
#286 = LINE ( 'NONE', #287, #288 ) ;
#287 = CARTESIAN_POINT ( 'NONE',  ( 4.000000000000000000, 4.898425415289509000E-016, 148.5000000000000000 ) ) ;
#288 = VECTOR ( 'NONE', #289, 1000.000000000000000 ) ;
#289 = DIRECTION ( 'NONE',  ( 0.0000000000000000000, 0.0000000000000000000, -1.000000000000000000 ) ) ;
#290 = FACE_OUTER_BOUND ( 'NONE', #18, .T. ) ;
#291 = CYLINDRICAL_SURFACE ( 'NONE', #292, 2.100000000000000100 ) ;
#292 = AXIS2_PLACEMENT_3D ( 'NONE', #293, #294, #295 ) ;
#293 = CARTESIAN_POINT ( 'NONE',  ( 0.0000000000000000000, 0.0000000000000000000, -123.5000000000000000 ) ) ;
#294 = DIRECTION ( 'NONE',  ( 0.0000000000000000000, 0.0000000000000000000, -1.000000000000000000 ) ) ;
#295 = DIRECTION ( 'NONE',  ( -1.000000000000000000, 0.0000000000000000000, 0.0000000000000000000 ) ) ;
#296 = CIRCLE ( 'NONE', #297, 2.100000000000000100 ) ;
#297 = AXIS2_PLACEMENT_3D ( 'NONE', #298, #299, #301 ) ;
#298 = CARTESIAN_POINT ( 'NONE',  ( 0.0000000000000000000, 0.0000000000000000000, 148.5000000000000000 ) ) ;
#299 = DIRECTION ( 'NONE',  ( 0.0000000000000000000, 0.0000000000000000000, 1.000000000000000000 ) ) ;
#300 = ADVANCED_FACE ( 'NONE', ( #290 ), #291, .F. ) ;
#301 = DIRECTION ( 'NONE',  ( 1.000000000000000000, 0.0000000000000000000, 0.0000000000000000000 ) ) ;
#302 = LINE ( 'NONE', #303, #304 ) ;
#303 = CARTESIAN_POINT ( 'NONE',  ( 2.100000000000000100, 0.0000000000000000000, 123.5000000000000000 ) ) ;
#304 = VECTOR ( 'NONE', #305, 1000.000000000000000 ) ;
#305 = DIRECTION ( 'NONE',  ( 0.0000000000000000000, 0.0000000000000000000, 1.000000000000000000 ) ) ;
#306 = FACE_OUTER_BOUND ( 'NONE', #373, .T. ) ;
#307 = CYLINDRICAL_SURFACE ( 'NONE', #308, 2.100000000000000100 ) ;
#308 = AXIS2_PLACEMENT_3D ( 'NONE', #309, #310, #311 ) ;
#309 = CARTESIAN_POINT ( 'NONE',  ( 0.0000000000000000000, 0.0000000000000000000, 123.5000000000000000 ) ) ;
#310 = DIRECTION ( 'NONE',  ( 0.0000000000000000000, 0.0000000000000000000, 1.000000000000000000 ) ) ;
#311 = DIRECTION ( 'NONE',  ( 1.000000000000000000, 0.0000000000000000000, 0.0000000000000000000 ) ) ;
#312 = LINE ( 'NONE', #313, #314 ) ;
#313 = CARTESIAN_POINT ( 'NONE',  ( -4.000000000000000000, 0.0000000000000000000, 148.5000000000000000 ) ) ;
#314 = VECTOR ( 'NONE', #315, 1000.000000000000000 ) ;
#315 = DIRECTION ( 'NONE',  ( 0.0000000000000000000, 0.0000000000000000000, -1.000000000000000000 ) ) ;
#316 = FACE_OUTER_BOUND ( 'NONE', #21, .T. ) ;
#317 = EDGE_CURVE ( 'NONE', #377, #375, #296, .T. ) ;
#318 = ORIENTED_EDGE ( 'NONE', *, *, #11, .T. ) ;
#319 = ADVANCED_FACE ( 'NONE', ( #306 ), #307, .F. ) ;
#320 = CONICAL_SURFACE ( 'NONE', #321, 4.000000000000000000, 0.7853981633974340700 ) ;
#321 = AXIS2_PLACEMENT_3D ( 'NONE', #322, #323, #324 ) ;
#322 = CARTESIAN_POINT ( 'NONE',  ( 0.0000000000000000000, 0.0000000000000000000, -148.0000000000000000 ) ) ;
#323 = DIRECTION ( 'NONE',  ( 0.0000000000000000000, 0.0000000000000000000, 1.000000000000000000 ) ) ;
#324 = DIRECTION ( 'NONE',  ( 1.000000000000000000, 0.0000000000000000000, 0.0000000000000000000 ) ) ;
#325 = CARTESIAN_POINT ( 'NONE',  ( -3.500000000000013800, 4.592273826833923600E-016, -148.5000000000000000 ) ) ;
#326 = CARTESIAN_POINT ( 'NONE',  ( -4.000000000000000000, 0.0000000000000000000, 148.0000000000000000 ) ) ;
#327 = CIRCLE ( 'NONE', #328, 2.100000000000000100 ) ;
#328 = AXIS2_PLACEMENT_3D ( 'NONE', #329, #330, #331 ) ;
#329 = CARTESIAN_POINT ( 'NONE',  ( 0.0000000000000000000, 0.0000000000000000000, 148.5000000000000000 ) ) ;
#330 = DIRECTION ( 'NONE',  ( 0.0000000000000000000, 0.0000000000000000000, 1.000000000000000000 ) ) ;
#331 = DIRECTION ( 'NONE',  ( 1.000000000000000000, 0.0000000000000000000, 0.0000000000000000000 ) ) ;
#332 = FACE_OUTER_BOUND ( 'NONE', #384, .T. ) ;
#333 = PLANE ( 'NONE',  #334 ) ;
#334 = AXIS2_PLACEMENT_3D ( 'NONE', #335, #338, #339 ) ;
#335 = CARTESIAN_POINT ( 'NONE',  ( 0.0000000000000000000, 0.0000000000000000000, 123.5000000000000000 ) ) ;
#336 = EDGE_CURVE ( 'NONE', #350, #31, #312, .T. ) ;
#337 = ORIENTED_EDGE ( 'NONE', *, *, #374, .T. ) ;
#338 = DIRECTION ( 'NONE',  ( 0.0000000000000000000, 0.0000000000000000000, 1.000000000000000000 ) ) ;
#339 = DIRECTION ( 'NONE',  ( 1.000000000000000000, 0.0000000000000000000, 0.0000000000000000000 ) ) ;
#340 = LINE ( 'NONE', #341, #342 ) ;
#341 = CARTESIAN_POINT ( 'NONE',  ( -2.100000000000000100, 2.571673343026992500E-016, 123.5000000000000000 ) ) ;
#342 = VECTOR ( 'NONE', #343, 1000.000000000000000 ) ;
#343 = DIRECTION ( 'NONE',  ( 0.0000000000000000000, 0.0000000000000000000, 1.000000000000000000 ) ) ;
#344 =( LENGTH_UNIT ( ) NAMED_UNIT ( * ) SI_UNIT ( .MILLI., .METRE. ) );
#345 =( NAMED_UNIT ( * ) PLANE_ANGLE_UNIT ( ) SI_UNIT ( $, .RADIAN. ) );
#346 =( NAMED_UNIT ( * ) SI_UNIT ( $, .STERADIAN. ) SOLID_ANGLE_UNIT ( ) );
#347 = UNCERTAINTY_MEASURE_WITH_UNIT (LENGTH_MEASURE( 1.000000000000000100E-005 ), #344, 'distance_accuracy_value', 'NONE');
#348 =( GEOMETRIC_REPRESENTATION_CONTEXT ( 3 ) GLOBAL_UNCERTAINTY_ASSIGNED_CONTEXT ( ( #347 ) ) GLOBAL_UNIT_ASSIGNED_CONTEXT ( ( #344, #345, #346 ) ) REPRESENTATION_CONTEXT ( 'NONE', 'WORKASPACE' ) );
#349 = ADVANCED_BREP_SHAPE_REPRESENTATION ( 'BRCP01-I01-06-A-axe entretoises tiroir', ( #61, #354 ), #348 ) ;
#350 = VERTEX_POINT ( 'NONE', #326 ) ;
#351 = ORIENTED_EDGE ( 'NONE', *, *, #209, .F. ) ;
#352 = ADVANCED_FACE ( 'NONE', ( #332 ), #333, .T. ) ;
#353 = EDGE_CURVE ( 'NONE', #19, #377, #340, .T. ) ;
#354 = AXIS2_PLACEMENT_3D ( 'NONE', #355, #356, #357 ) ;
#355 = CARTESIAN_POINT ( 'NONE',  ( 0.0000000000000000000, 0.0000000000000000000, 0.0000000000000000000 ) ) ;
#356 = DIRECTION ( 'NONE',  ( 0.0000000000000000000, 0.0000000000000000000, 1.000000000000000000 ) ) ;
#357 = DIRECTION ( 'NONE',  ( 1.000000000000000000, 0.0000000000000000000, 0.0000000000000000000 ) ) ;
#358 = APPLICATION_CONTEXT ( 'automotive_design' ) ;
#359 = APPLICATION_PROTOCOL_DEFINITION ( 'draft international standard', 'automotive_design', 1998, #358 ) ;
#360 = PRODUCT_CONTEXT ( 'NONE', #358, 'mechanical' ) ;
#361 = PRODUCT ( 'BRCP01-I01-06-A-axe entretoises tiroir', 'BRCP01-I01-06-A-axe entretoises tiroir', '', ( #360 ) ) ;
#362 = APPLICATION_CONTEXT ( 'automotive_design' ) ;
#363 = APPLICATION_PROTOCOL_DEFINITION ( 'draft international standard', 'automotive_design', 1998, #362 ) ;
#364 = PRODUCT_DEFINITION_CONTEXT ( 'detailed design', #362, 'design' ) ;
#365 = PRODUCT_DEFINITION ( 'UNKNOWN', '', #366, #364 ) ;
#366 = PRODUCT_DEFINITION_FORMATION_WITH_SPECIFIED_SOURCE ( 'ANY', '', #361, .NOT_KNOWN. ) ;
#367 = PRODUCT_RELATED_PRODUCT_CATEGORY ( 'part', '', ( #361 ) ) ;
#368 = PRODUCT_DEFINITION_SHAPE ( 'NONE', 'NONE',  #365 ) ;
#369 = SHAPE_DEFINITION_REPRESENTATION ( #368, #349 ) ;
#370 = ADVANCED_FACE ( 'NONE', ( #77, #78 ), #79, .F. ) ;
#371 = EDGE_LOOP ( 'NONE', ( #59, #158 ) ) ;
#372 = EDGE_CURVE ( 'NONE', #35, #19, #93, .T. ) ;
#373 = EDGE_LOOP ( 'NONE', ( #45, #73, #65, #29 ) ) ;
#374 = EDGE_CURVE ( 'NONE', #57, #378, #114, .T. ) ;
#375 = VERTEX_POINT ( 'NONE', #122 ) ;
#376 = ADVANCED_FACE ( 'NONE', ( #124 ), #125, .F. ) ;
#377 = VERTEX_POINT ( 'NONE', #130 ) ;
#378 = VERTEX_POINT ( 'NONE', #145 ) ;
#379 = ORIENTED_EDGE ( 'NONE', *, *, #374, .F. ) ;
#380 = EDGE_CURVE ( 'NONE', #44, #51, #168, .T. ) ;
#381 = EDGE_CURVE ( 'NONE', #27, #68, #173, .T. ) ;
#382 = ORIENTED_EDGE ( 'NONE', *, *, #40, .T. ) ;
#383 = ORIENTED_EDGE ( 'NONE', *, *, #28, .F. ) ;
#384 = EDGE_LOOP ( 'NONE', ( #53, #318 ) ) ;
#385 = EDGE_CURVE ( 'NONE', #44, #31, #203, .T. ) ;
ENDSEC;
END-ISO-10303-21;
