ISO-10303-21;
HEADER;
FILE_DESCRIPTION( ( 'STEP AP203' ), '1' );
FILE_NAME( ' ', '  ', ( '  ' ), ( '  ' ), 'PSStep 10.1', '  ', '  ' );
FILE_SCHEMA( ( 'CONFIG_CONTROL_DESIGN' ) );
ENDSEC;
DATA;
#1 = DESIGN_CONTEXT( '', #27, 'design' );
#2 = APPLICATION_PROTOCOL_DEFINITION( 'INTERNATIONAL STANDARD', 'config_control_design', 1994, #27 );
#3 = PRODUCT_CATEGORY_RELATIONSHIP( 'NONE', 'NONE', #28, #29 );
#4 = DATE_AND_TIME( #30, #31 );
#5 = DATE_TIME_ROLE( 'creation_date' );
#6 = DATE_TIME_ROLE( 'classification_date' );
#7 = PERSON_AND_ORGANIZATION_ROLE( 'creator' );
#8 = PERSON_AND_ORGANIZATION_ROLE( 'design_supplier' );
#9 = PERSON_AND_ORGANIZATION_ROLE( 'classification_officer' );
#10 = PERSON_AND_ORGANIZATION_ROLE( 'design_owner' );
#11 = APPROVAL_PERSON_ORGANIZATION( #32, #33, #34 );
#12 = APPROVAL_DATE_TIME( #4, #33 );
#13 = CC_DESIGN_APPROVAL( #33, ( #35, #36, #37 ) );
#14 = CC_DESIGN_DATE_AND_TIME_ASSIGNMENT( #4, #5, ( #37 ) );
#15 = CC_DESIGN_DATE_AND_TIME_ASSIGNMENT( #4, #6, ( #35 ) );
#16 = CC_DESIGN_PERSON_AND_ORGANIZATION_ASSIGNMENT( #32, #10, ( #38 ) );
#17 = CC_DESIGN_PERSON_AND_ORGANIZATION_ASSIGNMENT( #32, #7, ( #37 ) );
#18 = CC_DESIGN_PERSON_AND_ORGANIZATION_ASSIGNMENT( #32, #7, ( #36 ) );
#19 = CC_DESIGN_PERSON_AND_ORGANIZATION_ASSIGNMENT( #32, #8, ( #36 ) );
#20 = CC_DESIGN_SECURITY_CLASSIFICATION( #35, ( #36 ) );
#21 = CC_DESIGN_PERSON_AND_ORGANIZATION_ASSIGNMENT( #32, #9, ( #35 ) );
#22 = SHAPE_DEFINITION_REPRESENTATION( #39, #40 );
#23 =  ( GEOMETRIC_REPRESENTATION_CONTEXT( 3 )GLOBAL_UNCERTAINTY_ASSIGNED_CONTEXT( ( #43 ) )GLOBAL_UNIT_ASSIGNED_CONTEXT( ( #45, #46, #47 ) )REPRESENTATION_CONTEXT( 'NONE', 'WORKSPACE' ) );
#27 = APPLICATION_CONTEXT( 'CONFIGURATION CONTROLLED 3D DESIGNS OF MECHANICAL PARTS AND ASSEMBLIES' );
#28 = PRODUCT_CATEGORY( 'part', 'NONE' );
#29 = PRODUCT_RELATED_PRODUCT_CATEGORY( 'detail', ' ', ( #38 ) );
#30 = CALENDAR_DATE( 2024, 5, 6 );
#31 = LOCAL_TIME( 13, 56, 11.0000000000000, #49 );
#32 = PERSON_AND_ORGANIZATION( #50, #51 );
#33 = APPROVAL( #52, 'SOLID MODEL' );
#34 = APPROVAL_ROLE( 'APPROVED' );
#35 = SECURITY_CLASSIFICATION( '', '', #53 );
#36 = PRODUCT_DEFINITION_FORMATION_WITH_SPECIFIED_SOURCE( ' ', 'NONE', #38, .NOT_KNOWN. );
#37 = PRODUCT_DEFINITION( 'NONE', 'NONE', #36, #1 );
#38 = PRODUCT( '1', '1', 'PART-1-DESC', ( #54 ) );
#39 = PRODUCT_DEFINITION_SHAPE( 'NONE', 'NONE', #37 );
#40 = ADVANCED_BREP_SHAPE_REPRESENTATION( '1', ( #55, #56 ), #23 );
#43 = UNCERTAINTY_MEASURE_WITH_UNIT( LENGTH_MEASURE( 0.00100000000000000 ), #45, '', '' );
#45 =  ( CONVERSION_BASED_UNIT( 'MILLIMETRE', #59 )LENGTH_UNIT(  )NAMED_UNIT( #62 ) );
#46 =  ( NAMED_UNIT( #64 )PLANE_ANGLE_UNIT(  )SI_UNIT( $, .RADIAN. ) );
#47 =  ( NAMED_UNIT( #64 )SI_UNIT( $, .STERADIAN. )SOLID_ANGLE_UNIT(  ) );
#49 = COORDINATED_UNIVERSAL_TIME_OFFSET( 1, 0, .AHEAD. );
#50 = PERSON( '', 'UNSPECIFIED', $, $, $, $ );
#51 = ORGANIZATION( 'UNSPECIFIED', 'UNSPECIFIED', 'UNSPECIFIED' );
#52 = APPROVAL_STATUS( 'approved' );
#53 = SECURITY_CLASSIFICATION_LEVEL( 'unclassified' );
#54 = MECHANICAL_CONTEXT( '', #27, 'mechanical' );
#55 = MANIFOLD_SOLID_BREP( '1', #70 );
#56 = AXIS2_PLACEMENT_3D( '', #71, #72, #73 );
#59 = LENGTH_MEASURE_WITH_UNIT( LENGTH_MEASURE( 1.00000000000000 ), #74 );
#62 = DIMENSIONAL_EXPONENTS( 1.00000000000000, 0.000000000000000, 0.000000000000000, 0.000000000000000, 0.000000000000000, 0.000000000000000, 0.000000000000000 );
#64 = DIMENSIONAL_EXPONENTS( 0.000000000000000, 0.000000000000000, 0.000000000000000, 0.000000000000000, 0.000000000000000, 0.000000000000000, 0.000000000000000 );
#70 = CLOSED_SHELL( '', ( #75, #76, #77, #78, #79, #80, #81, #82, #83, #84, #85, #86, #87 ) );
#71 = CARTESIAN_POINT( '', ( 0.000000000000000, 0.000000000000000, 0.000000000000000 ) );
#72 = DIRECTION( '', ( 0.000000000000000, 0.000000000000000, 1.00000000000000 ) );
#73 = DIRECTION( '', ( 1.00000000000000, 0.000000000000000, 0.000000000000000 ) );
#74 =  ( LENGTH_UNIT(  )NAMED_UNIT( #62 )SI_UNIT( .MILLI., .METRE. ) );
#75 = ADVANCED_FACE( '', ( #89 ), #90, .T. );
#76 = ADVANCED_FACE( '', ( #91 ), #92, .F. );
#77 = ADVANCED_FACE( '', ( #93, #94 ), #95, .F. );
#78 = ADVANCED_FACE( '', ( #96 ), #97, .F. );
#79 = ADVANCED_FACE( '', ( #98 ), #99, .F. );
#80 = ADVANCED_FACE( '', ( #100 ), #101, .F. );
#81 = ADVANCED_FACE( '', ( #102 ), #103, .F. );
#82 = ADVANCED_FACE( '', ( #104 ), #105, .T. );
#83 = ADVANCED_FACE( '', ( #106 ), #107, .F. );
#84 = ADVANCED_FACE( '', ( #108 ), #109, .F. );
#85 = ADVANCED_FACE( '', ( #110 ), #111, .T. );
#86 = ADVANCED_FACE( '', ( #112 ), #113, .T. );
#87 = ADVANCED_FACE( '', ( #114 ), #115, .T. );
#89 = FACE_OUTER_BOUND( '', #116, .T. );
#90 = CYLINDRICAL_SURFACE( '', #117, 2.45000000013000 );
#91 = FACE_OUTER_BOUND( '', #118, .T. );
#92 = CYLINDRICAL_SURFACE( '', #119, 10.0000000000000 );
#93 = FACE_OUTER_BOUND( '', #120, .T. );
#94 = FACE_BOUND( '', #121, .T. );
#95 = PLANE( '', #122 );
#96 = FACE_OUTER_BOUND( '', #123, .T. );
#97 = TOROIDAL_SURFACE( '', #124, 12.4500000001000, 10.0000000000000 );
#98 = FACE_OUTER_BOUND( '', #125, .T. );
#99 = TOROIDAL_SURFACE( '', #126, 12.4500000001000, 10.0000000000000 );
#100 = FACE_OUTER_BOUND( '', #127, .T. );
#101 = CYLINDRICAL_SURFACE( '', #128, 10.0000000000000 );
#102 = FACE_OUTER_BOUND( '', #129, .T. );
#103 = PLANE( '', #130 );
#104 = FACE_OUTER_BOUND( '', #131, .T. );
#105 = CYLINDRICAL_SURFACE( '', #132, 2.45000000013000 );
#106 = FACE_OUTER_BOUND( '', #133, .T. );
#107 = PLANE( '', #134 );
#108 = FACE_OUTER_BOUND( '', #135, .T. );
#109 = PLANE( '', #136 );
#110 = FACE_OUTER_BOUND( '', #137, .T. );
#111 = CYLINDRICAL_SURFACE( '', #138, 20.0000000000000 );
#112 = FACE_OUTER_BOUND( '', #139, .T. );
#113 = CYLINDRICAL_SURFACE( '', #140, 20.0000000000000 );
#114 = FACE_OUTER_BOUND( '', #141, .T. );
#115 = PLANE( '', #142 );
#116 = EDGE_LOOP( '', ( #143, #144, #145, #146 ) );
#117 = AXIS2_PLACEMENT_3D( '', #147, #148, #149 );
#118 = EDGE_LOOP( '', ( #150, #151, #152, #153 ) );
#119 = AXIS2_PLACEMENT_3D( '', #154, #155, #156 );
#120 = EDGE_LOOP( '', ( #157, #158 ) );
#121 = EDGE_LOOP( '', ( #159, #160, #161, #162 ) );
#122 = AXIS2_PLACEMENT_3D( '', #163, #164, #165 );
#123 = EDGE_LOOP( '', ( #166, #167, #168, #169 ) );
#124 = AXIS2_PLACEMENT_3D( '', #170, #171, #172 );
#125 = EDGE_LOOP( '', ( #173, #174, #175, #176 ) );
#126 = AXIS2_PLACEMENT_3D( '', #177, #178, #179 );
#127 = EDGE_LOOP( '', ( #180, #181, #182, #183 ) );
#128 = AXIS2_PLACEMENT_3D( '', #184, #185, #186 );
#129 = EDGE_LOOP( '', ( #187, #188, #189, #190 ) );
#130 = AXIS2_PLACEMENT_3D( '', #191, #192, #193 );
#131 = EDGE_LOOP( '', ( #194, #195, #196, #197 ) );
#132 = AXIS2_PLACEMENT_3D( '', #198, #199, #200 );
#133 = EDGE_LOOP( '', ( #201, #202, #203, #204 ) );
#134 = AXIS2_PLACEMENT_3D( '', #205, #206, #207 );
#135 = EDGE_LOOP( '', ( #208, #209, #210, #211 ) );
#136 = AXIS2_PLACEMENT_3D( '', #212, #213, #214 );
#137 = EDGE_LOOP( '', ( #215, #216, #217, #218 ) );
#138 = AXIS2_PLACEMENT_3D( '', #219, #220, #221 );
#139 = EDGE_LOOP( '', ( #222, #223, #224, #225 ) );
#140 = AXIS2_PLACEMENT_3D( '', #226, #227, #228 );
#141 = EDGE_LOOP( '', ( #229, #230 ) );
#142 = AXIS2_PLACEMENT_3D( '', #231, #232, #233 );
#143 = ORIENTED_EDGE( '', *, *, #234, .F. );
#144 = ORIENTED_EDGE( '', *, *, #235, .T. );
#145 = ORIENTED_EDGE( '', *, *, #236, .T. );
#146 = ORIENTED_EDGE( '', *, *, #237, .T. );
#147 = CARTESIAN_POINT( '', ( 5465.61177868000, -745.117349239000, -21.9172240806000 ) );
#148 = DIRECTION( '', ( -0.0962907558447003, 0.412604169385141, 0.905806761812283 ) );
#149 = DIRECTION( '', ( -0.994560125916148, -0.00356174635301052, -0.104103169503015 ) );
#150 = ORIENTED_EDGE( '', *, *, #238, .T. );
#151 = ORIENTED_EDGE( '', *, *, #239, .T. );
#152 = ORIENTED_EDGE( '', *, *, #240, .F. );
#153 = ORIENTED_EDGE( '', *, *, #241, .F. );
#154 = CARTESIAN_POINT( '', ( 5478.96513460000, -749.011607349000, -29.7637189756000 ) );
#155 = DIRECTION( '', ( -0.0397271478531656, -0.910903459960998, 0.410702617905627 ) );
#156 = DIRECTION( '', ( 0.0962907558444331, -0.412604169385142, -0.905806761812311 ) );
#157 = ORIENTED_EDGE( '', *, *, #242, .F. );
#158 = ORIENTED_EDGE( '', *, *, #243, .F. );
#159 = ORIENTED_EDGE( '', *, *, #244, .F. );
#160 = ORIENTED_EDGE( '', *, *, #238, .F. );
#161 = ORIENTED_EDGE( '', *, *, #245, .F. );
#162 = ORIENTED_EDGE( '', *, *, #246, .F. );
#163 = CARTESIAN_POINT( '', ( 84.1175999241000, -360.442413635000, -791.293931910000 ) );
#164 = DIRECTION( '', ( 0.0962907558444330, -0.412604169385142, -0.905806761812311 ) );
#165 = DIRECTION( '', ( 0.000000000000000, -0.910035470022536, 0.414530388875004 ) );
#166 = ORIENTED_EDGE( '', *, *, #245, .T. );
#167 = ORIENTED_EDGE( '', *, *, #241, .T. );
#168 = ORIENTED_EDGE( '', *, *, #247, .F. );
#169 = ORIENTED_EDGE( '', *, *, #248, .F. );
#170 = CARTESIAN_POINT( '', ( 5466.33632335000, -754.708811694000, -28.5110759906000 ) );
#171 = DIRECTION( '', ( 0.0962907558446407, -0.412604169385141, -0.905806761812290 ) );
#172 = DIRECTION( '', ( 0.994560125916244, 0.00356174635506087, 0.104103169502026 ) );
#173 = ORIENTED_EDGE( '', *, *, #244, .T. );
#174 = ORIENTED_EDGE( '', *, *, #249, .T. );
#175 = ORIENTED_EDGE( '', *, *, #237, .F. );
#176 = ORIENTED_EDGE( '', *, *, #239, .F. );
#177 = CARTESIAN_POINT( '', ( 5466.57468623000, -749.243390933000, -30.9752916987000 ) );
#178 = DIRECTION( '', ( 0.0962907558447044, -0.412604169385141, -0.905806761812283 ) );
#179 = DIRECTION( '', ( -0.994560125916147, -0.00356174635302053, -0.104103169503015 ) );
#180 = ORIENTED_EDGE( '', *, *, #246, .T. );
#181 = ORIENTED_EDGE( '', *, *, #248, .T. );
#182 = ORIENTED_EDGE( '', *, *, #250, .F. );
#183 = ORIENTED_EDGE( '', *, *, #249, .F. );
#184 = CARTESIAN_POINT( '', ( 5453.94984770000, -754.849504932000, -29.7637189756000 ) );
#185 = DIRECTION( '', ( 0.0397271478524732, 0.910903459960996, -0.410702617905699 ) );
#186 = DIRECTION( '', ( 0.0962907558444331, -0.412604169385142, -0.905806761812311 ) );
#187 = ORIENTED_EDGE( '', *, *, #250, .T. );
#188 = ORIENTED_EDGE( '', *, *, #251, .F. );
#189 = ORIENTED_EDGE( '', *, *, #252, .T. );
#190 = ORIENTED_EDGE( '', *, *, #234, .T. );
#191 = CARTESIAN_POINT( '', ( 5463.17510637000, -745.126075518000, -22.1722768459000 ) );
#192 = DIRECTION( '', ( 0.994560125916147, 0.00356174635313053, 0.104103169503015 ) );
#193 = DIRECTION( '', ( 0.000000000000000, -0.999415227418614, 0.0341936134943351 ) );
#194 = ORIENTED_EDGE( '', *, *, #253, .F. );
#195 = ORIENTED_EDGE( '', *, *, #254, .T. );
#196 = ORIENTED_EDGE( '', *, *, #251, .T. );
#197 = ORIENTED_EDGE( '', *, *, #247, .T. );
#198 = CARTESIAN_POINT( '', ( 5465.37341579000, -750.582770000000, -19.4530083725000 ) );
#199 = DIRECTION( '', ( -0.0962907558446981, 0.412604169385141, 0.905806761812283 ) );
#200 = DIRECTION( '', ( 0.994560125916243, 0.00356174635520087, 0.104103169502025 ) );
#201 = ORIENTED_EDGE( '', *, *, #252, .F. );
#202 = ORIENTED_EDGE( '', *, *, #254, .F. );
#203 = ORIENTED_EDGE( '', *, *, #255, .F. );
#204 = ORIENTED_EDGE( '', *, *, #235, .F. );
#205 = CARTESIAN_POINT( '', ( 80.2659696903000, -343.938246860000, -755.061661437000 ) );
#206 = DIRECTION( '', ( 0.0962907558444330, -0.412604169385142, -0.905806761812311 ) );
#207 = DIRECTION( '', ( 0.000000000000000, -0.910035470022536, 0.414530388875004 ) );
#208 = ORIENTED_EDGE( '', *, *, #240, .T. );
#209 = ORIENTED_EDGE( '', *, *, #236, .F. );
#210 = ORIENTED_EDGE( '', *, *, #255, .T. );
#211 = ORIENTED_EDGE( '', *, *, #253, .T. );
#212 = CARTESIAN_POINT( '', ( 5467.81008810000, -750.574043722000, -19.1979556072000 ) );
#213 = DIRECTION( '', ( -0.994560125916149, -0.00356174635254054, -0.104103169503016 ) );
#214 = DIRECTION( '', ( -0.104103829837633, 0.000000000000000, 0.994566434489490 ) );
#215 = ORIENTED_EDGE( '', *, *, #256, .F. );
#216 = ORIENTED_EDGE( '', *, *, #243, .T. );
#217 = ORIENTED_EDGE( '', *, *, #257, .T. );
#218 = ORIENTED_EDGE( '', *, *, #258, .F. );
#219 = CARTESIAN_POINT( '', ( 5468.38330626000, -760.182639528000, -47.8798542119000 ) );
#220 = DIRECTION( '', ( -0.0962907558444745, 0.412604169385132, 0.905806761812311 ) );
#221 = DIRECTION( '', ( 0.973832617712376, 0.227266435444088, 3.04816298574440E-016 ) );
#222 = ORIENTED_EDGE( '', *, *, #257, .F. );
#223 = ORIENTED_EDGE( '', *, *, #242, .T. );
#224 = ORIENTED_EDGE( '', *, *, #256, .T. );
#225 = ORIENTED_EDGE( '', *, *, #259, .F. );
#226 = CARTESIAN_POINT( '', ( 5468.38330626000, -760.182639528000, -47.8798542119000 ) );
#227 = DIRECTION( '', ( -0.0962907558444745, 0.412604169385132, 0.905806761812311 ) );
#228 = DIRECTION( '', ( 0.973832617712376, 0.227266435444088, 3.04816298574440E-016 ) );
#229 = ORIENTED_EDGE( '', *, *, #258, .T. );
#230 = ORIENTED_EDGE( '', *, *, #259, .T. );
#231 = CARTESIAN_POINT( '', ( 86.0434150410000, -368.694497023000, -809.410067146000 ) );
#232 = DIRECTION( '', ( 0.0962907558444330, -0.412604169385142, -0.905806761812311 ) );
#233 = DIRECTION( '', ( 0.000000000000000, -0.910035470022536, 0.414530388875004 ) );
#234 = EDGE_CURVE( '', #260, #261, #262, .T. );
#235 = EDGE_CURVE( '', #260, #263, #264, .T. );
#236 = EDGE_CURVE( '', #263, #265, #266, .T. );
#237 = EDGE_CURVE( '', #265, #261, #267, .T. );
#238 = EDGE_CURVE( '', #268, #269, #270, .T. );
#239 = EDGE_CURVE( '', #269, #265, #271, .T. );
#240 = EDGE_CURVE( '', #272, #265, #273, .T. );
#241 = EDGE_CURVE( '', #268, #272, #274, .T. );
#242 = EDGE_CURVE( '', #275, #276, #277, .T. );
#243 = EDGE_CURVE( '', #276, #275, #278, .T. );
#244 = EDGE_CURVE( '', #269, #279, #280, .T. );
#245 = EDGE_CURVE( '', #281, #268, #282, .T. );
#246 = EDGE_CURVE( '', #279, #281, #283, .T. );
#247 = EDGE_CURVE( '', #284, #272, #285, .T. );
#248 = EDGE_CURVE( '', #281, #284, #286, .T. );
#249 = EDGE_CURVE( '', #279, #261, #287, .T. );
#250 = EDGE_CURVE( '', #261, #284, #288, .T. );
#251 = EDGE_CURVE( '', #289, #284, #290, .T. );
#252 = EDGE_CURVE( '', #289, #260, #291, .T. );
#253 = EDGE_CURVE( '', #292, #272, #293, .T. );
#254 = EDGE_CURVE( '', #292, #289, #294, .T. );
#255 = EDGE_CURVE( '', #263, #292, #295, .T. );
#256 = EDGE_CURVE( '', #276, #296, #297, .T. );
#257 = EDGE_CURVE( '', #275, #298, #299, .T. );
#258 = EDGE_CURVE( '', #296, #298, #300, .T. );
#259 = EDGE_CURVE( '', #298, #296, #301, .T. );
#260 = VERTEX_POINT( '', #302 );
#261 = VERTEX_POINT( '', #303 );
#262 = LINE( '', #304, #305 );
#263 = VERTEX_POINT( '', #306 );
#264 = CIRCLE( '', #307, 2.45000000013000 );
#265 = VERTEX_POINT( '', #308 );
#266 = LINE( '', #309, #310 );
#267 = CIRCLE( '', #311, 2.45000000013000 );
#268 = VERTEX_POINT( '', #312 );
#269 = VERTEX_POINT( '', #313 );
#270 = LINE( '', #314, #315 );
#271 = CIRCLE( '', #316, 10.0000000000000 );
#272 = VERTEX_POINT( '', #317 );
#273 = LINE( '', #318, #319 );
#274 = CIRCLE( '', #320, 10.0000000000000 );
#275 = VERTEX_POINT( '', #321 );
#276 = VERTEX_POINT( '', #322 );
#277 = CIRCLE( '', #323, 20.0000000000000 );
#278 = CIRCLE( '', #324, 20.0000000000000 );
#279 = VERTEX_POINT( '', #325 );
#280 = CIRCLE( '', #326, 12.4500000001000 );
#281 = VERTEX_POINT( '', #327 );
#282 = CIRCLE( '', #328, 12.4500000001000 );
#283 = LINE( '', #329, #330 );
#284 = VERTEX_POINT( '', #331 );
#285 = CIRCLE( '', #332, 2.45000000013000 );
#286 = CIRCLE( '', #333, 10.0000000000000 );
#287 = CIRCLE( '', #334, 10.0000000000000 );
#288 = LINE( '', #335, #336 );
#289 = VERTEX_POINT( '', #337 );
#290 = LINE( '', #338, #339 );
#291 = LINE( '', #340, #341 );
#292 = VERTEX_POINT( '', #342 );
#293 = LINE( '', #343, #344 );
#294 = CIRCLE( '', #345, 2.45000000013000 );
#295 = LINE( '', #346, #347 );
#296 = VERTEX_POINT( '', #348 );
#297 = LINE( '', #349, #350 );
#298 = VERTEX_POINT( '', #351 );
#299 = LINE( '', #352, #353 );
#300 = CIRCLE( '', #354, 20.0000000000000 );
#301 = CIRCLE( '', #355, 20.0000000000000 );
#302 = CARTESIAN_POINT( '', ( 5461.24929125000, -736.873992130000, -4.05614160965000 ) );
#303 = CARTESIAN_POINT( '', ( 5464.13801393000, -749.252117212000, -31.2303444640000 ) );
#304 = CARTESIAN_POINT( '', ( 5463.17510637000, -745.126075518000, -22.1722768459000 ) );
#305 = VECTOR( '', #356, 1000.00000000000 );
#306 = CARTESIAN_POINT( '', ( 5466.12263587000, -736.856539573000, -3.54603607906000 ) );
#307 = AXIS2_PLACEMENT_3D( '', #357, #358, #359 );
#308 = CARTESIAN_POINT( '', ( 5469.01135854000, -749.234664654000, -30.7202389334000 ) );
#309 = CARTESIAN_POINT( '', ( 5468.04845098000, -745.108622961000, -21.6621713153000 ) );
#310 = VECTOR( '', #360, 1000.00000000000 );
#311 = AXIS2_PLACEMENT_3D( '', #361, #362, #363 );
#312 = CARTESIAN_POINT( '', ( 5479.68150447000, -758.790509646000, -36.2730591484000 ) );
#313 = CARTESIAN_POINT( '', ( 5479.91986736000, -753.325088885000, -38.7372748566000 ) );
#314 = CARTESIAN_POINT( '', ( 5479.92804216000, -753.137649043000, -38.8217865937000 ) );
#315 = VECTOR( '', #364, 1000.00000000000 );
#316 = AXIS2_PLACEMENT_3D( '', #365, #366, #367 );
#317 = CARTESIAN_POINT( '', ( 5468.77299566000, -754.700085416000, -28.2560232253000 ) );
#318 = CARTESIAN_POINT( '', ( 5468.89217710000, -751.967375035000, -29.4881310794000 ) );
#319 = VECTOR( '', #368, 1000.00000000000 );
#320 = AXIS2_PLACEMENT_3D( '', #369, #370, #371 );
#321 = CARTESIAN_POINT( '', ( 5447.94374635000, -760.601926543000, -38.8217865937000 ) );
#322 = CARTESIAN_POINT( '', ( 5486.89705106000, -751.511269125000, -38.8217865937000 ) );
#323 = AXIS2_PLACEMENT_3D( '', #372, #373, #374 );
#324 = AXIS2_PLACEMENT_3D( '', #375, #376, #377 );
#325 = CARTESIAN_POINT( '', ( 5455.15532022000, -753.413776369000, -41.3294437772000 ) );
#326 = AXIS2_PLACEMENT_3D( '', #378, #379, #380 );
#327 = CARTESIAN_POINT( '', ( 5454.91695734000, -758.879197130000, -38.8652280691000 ) );
#328 = AXIS2_PLACEMENT_3D( '', #381, #382, #383 );
#329 = CARTESIAN_POINT( '', ( 5454.91275526000, -758.975546626000, -38.8217865937000 ) );
#330 = VECTOR( '', #384, 1000.00000000000 );
#331 = CARTESIAN_POINT( '', ( 5463.89965104000, -754.717537973000, -28.7661287559000 ) );
#332 = AXIS2_PLACEMENT_3D( '', #385, #386, #387 );
#333 = AXIS2_PLACEMENT_3D( '', #388, #389, #390 );
#334 = AXIS2_PLACEMENT_3D( '', #391, #392, #393 );
#335 = CARTESIAN_POINT( '', ( 5464.01883248000, -751.984827592000, -29.9982366100000 ) );
#336 = VECTOR( '', #394, 1000.00000000000 );
#337 = CARTESIAN_POINT( '', ( 5461.01092836000, -742.339412891000, -1.59192590156000 ) );
#338 = CARTESIAN_POINT( '', ( 5462.45528970000, -748.528475432000, -15.1790273287000 ) );
#339 = VECTOR( '', #395, 1000.00000000000 );
#340 = CARTESIAN_POINT( '', ( 5461.13010981000, -739.606702511000, -2.82403375559000 ) );
#341 = VECTOR( '', #396, 1000.00000000000 );
#342 = CARTESIAN_POINT( '', ( 5465.88427298000, -742.321960334000, -1.08182037096000 ) );
#343 = CARTESIAN_POINT( '', ( 5467.32863432000, -748.511022875000, -14.6689217982000 ) );
#344 = VECTOR( '', #397, 1000.00000000000 );
#345 = AXIS2_PLACEMENT_3D( '', #398, #399, #400 );
#346 = CARTESIAN_POINT( '', ( 5466.00345442000, -739.589249954000, -2.31392822503000 ) );
#347 = VECTOR( '', #401, 1000.00000000000 );
#348 = CARTESIAN_POINT( '', ( 5488.82286618000, -759.763352513000, -56.9379218300000 ) );
#349 = CARTESIAN_POINT( '', ( 5487.85995862000, -755.637310819000, -47.8798542119000 ) );
#350 = VECTOR( '', #402, 1000.00000000000 );
#351 = CARTESIAN_POINT( '', ( 5449.86956147000, -768.854009931000, -56.9379218300000 ) );
#352 = CARTESIAN_POINT( '', ( 5448.90665391000, -764.727968237000, -47.8798542119000 ) );
#353 = VECTOR( '', #403, 1000.00000000000 );
#354 = AXIS2_PLACEMENT_3D( '', #404, #405, #406 );
#355 = AXIS2_PLACEMENT_3D( '', #407, #408, #409 );
#356 = DIRECTION( '', ( 0.0962907558444331, -0.412604169385142, -0.905806761812311 ) );
#357 = CARTESIAN_POINT( '', ( 5463.68596356000, -736.865265851000, -3.80108884436000 ) );
#358 = DIRECTION( '', ( 0.0962907558444331, -0.412604169385142, -0.905806761812311 ) );
#359 = DIRECTION( '', ( 0.995353249022129, 0.0399154444652609, 0.0876280032537139 ) );
#360 = DIRECTION( '', ( 0.0962907558444331, -0.412604169385142, -0.905806761812311 ) );
#361 = CARTESIAN_POINT( '', ( 5466.57468623000, -749.243390933000, -30.9752916987000 ) );
#362 = DIRECTION( '', ( -0.0962907558444331, 0.412604169385142, 0.905806761812311 ) );
#363 = DIRECTION( '', ( 0.995353249022129, 0.0399154444652609, 0.0876280032537139 ) );
#364 = DIRECTION( '', ( 0.0397271478531102, 0.910903459961235, -0.410702617905106 ) );
#365 = CARTESIAN_POINT( '', ( 5478.95695980000, -749.199047191000, -29.6792072384000 ) );
#366 = DIRECTION( '', ( 0.0397271478533099, 0.910903459961228, -0.410702617905103 ) );
#367 = DIRECTION( '', ( 0.999210565258115, -0.0362161867500104, 0.0163289342532550 ) );
#368 = DIRECTION( '', ( 0.0397271478531102, 0.910903459961235, -0.410702617905106 ) );
#369 = CARTESIAN_POINT( '', ( 5478.71859691000, -754.664467952000, -27.2149915303000 ) );
#370 = DIRECTION( '', ( 0.0397271478531103, 0.910903459961235, -0.410702617905106 ) );
#371 = DIRECTION( '', ( 0.999210565258123, -0.0362161867498283, 0.0163289342531729 ) );
#372 = CARTESIAN_POINT( '', ( 5467.42039871000, -756.056597834000, -38.8217865937000 ) );
#373 = DIRECTION( '', ( 0.0962907558444331, -0.412604169385142, -0.905806761812311 ) );
#374 = DIRECTION( '', ( 0.995353249022129, 0.0399154444652609, 0.0876280032537139 ) );
#375 = CARTESIAN_POINT( '', ( 5467.42039871000, -756.056597834000, -38.8217865937000 ) );
#376 = DIRECTION( '', ( 0.0962907558444331, -0.412604169385142, -0.905806761812311 ) );
#377 = DIRECTION( '', ( 0.995353249022129, 0.0399154444652609, 0.0876280032537139 ) );
#378 = CARTESIAN_POINT( '', ( 5467.53759379000, -753.369432627000, -40.0333593169000 ) );
#379 = DIRECTION( '', ( -0.0962907558444331, 0.412604169385142, 0.905806761812311 ) );
#380 = DIRECTION( '', ( 0.995353249022129, 0.0399154444652609, 0.0876280032537139 ) );
#381 = CARTESIAN_POINT( '', ( 5467.29923091000, -758.834853388000, -37.5691436088000 ) );
#382 = DIRECTION( '', ( -0.0962907558444331, 0.412604169385142, 0.905806761812311 ) );
#383 = DIRECTION( '', ( 0.995353249022129, 0.0399154444652609, 0.0876280032537139 ) );
#384 = DIRECTION( '', ( -0.0397271478524114, -0.910903459961261, 0.410702617905118 ) );
#385 = CARTESIAN_POINT( '', ( 5466.33632335000, -754.708811694000, -28.5110759906000 ) );
#386 = DIRECTION( '', ( -0.0962907558444331, 0.412604169385142, 0.905806761812311 ) );
#387 = DIRECTION( '', ( 0.995353249022129, 0.0399154444652609, 0.0876280032537139 ) );
#388 = CARTESIAN_POINT( '', ( 5453.95404978000, -754.753155436000, -29.8071604509000 ) );
#389 = DIRECTION( '', ( -0.0397271478524114, -0.910903459961261, 0.410702617905118 ) );
#390 = DIRECTION( '', ( 0.999210565258151, -0.0362161867491912, 0.0163289342528856 ) );
#391 = CARTESIAN_POINT( '', ( 5454.19241267000, -749.287734675000, -32.2713761591000 ) );
#392 = DIRECTION( '', ( -0.0397271478523115, -0.910903459961264, 0.410702617905119 ) );
#393 = DIRECTION( '', ( 0.999210565258154, -0.0362161867491002, 0.0163289342528446 ) );
#394 = DIRECTION( '', ( -0.0397271478525112, -0.910903459961257, 0.410702617905116 ) );
#395 = DIRECTION( '', ( 0.0962907558444331, -0.412604169385142, -0.905806761812311 ) );
#396 = DIRECTION( '', ( 0.0397271478525112, 0.910903459961257, -0.410702617905116 ) );
#397 = DIRECTION( '', ( 0.0962907558444331, -0.412604169385142, -0.905806761812311 ) );
#398 = CARTESIAN_POINT( '', ( 5463.44760067000, -742.330686613000, -1.33687313626000 ) );
#399 = DIRECTION( '', ( 0.0962907558444331, -0.412604169385142, -0.905806761812311 ) );
#400 = DIRECTION( '', ( 0.995353249022129, 0.0399154444652609, 0.0876280032537139 ) );
#401 = DIRECTION( '', ( -0.0397271478529106, -0.910903459961242, 0.410702617905109 ) );
#402 = DIRECTION( '', ( 0.0962907558444331, -0.412604169385142, -0.905806761812311 ) );
#403 = DIRECTION( '', ( 0.0962907558444331, -0.412604169385142, -0.905806761812311 ) );
#404 = CARTESIAN_POINT( '', ( 5469.34621382000, -764.308681222000, -56.9379218300000 ) );
#405 = DIRECTION( '', ( 0.0962907558444331, -0.412604169385142, -0.905806761812311 ) );
#406 = DIRECTION( '', ( 0.995353249022129, 0.0399154444652609, 0.0876280032537139 ) );
#407 = CARTESIAN_POINT( '', ( 5469.34621382000, -764.308681222000, -56.9379218300000 ) );
#408 = DIRECTION( '', ( 0.0962907558444331, -0.412604169385142, -0.905806761812311 ) );
#409 = DIRECTION( '', ( 0.995353249022129, 0.0399154444652609, 0.0876280032537139 ) );
ENDSEC;
END-ISO-10303-21;
