ISO-10303-21;
HEADER;
FILE_DESCRIPTION( ( 'STEP AP203' ), '1' );
FILE_NAME( ' ', '  ', ( '  ' ), ( '  ' ), 'PSStep 10.1', '  ', '  ' );
FILE_SCHEMA( ( 'CONFIG_CONTROL_DESIGN' ) );
ENDSEC;
DATA;
#1 = DESIGN_CONTEXT( '', #27, 'design' );
#2 = APPLICATION_PROTOCOL_DEFINITION( 'INTERNATIONAL STANDARD', 'config_control_design', 1994, #27 );
#3 = PRODUCT_CATEGORY_RELATIONSHIP( 'NONE', 'NONE', #28, #29 );
#4 = DATE_AND_TIME( #30, #31 );
#5 = DATE_TIME_ROLE( 'creation_date' );
#6 = DATE_TIME_ROLE( 'classification_date' );
#7 = PERSON_AND_ORGANIZATION_ROLE( 'creator' );
#8 = PERSON_AND_ORGANIZATION_ROLE( 'design_supplier' );
#9 = PERSON_AND_ORGANIZATION_ROLE( 'classification_officer' );
#10 = PERSON_AND_ORGANIZATION_ROLE( 'design_owner' );
#11 = APPROVAL_PERSON_ORGANIZATION( #32, #33, #34 );
#12 = APPROVAL_DATE_TIME( #4, #33 );
#13 = CC_DESIGN_APPROVAL( #33, ( #35, #36, #37 ) );
#14 = CC_DESIGN_DATE_AND_TIME_ASSIGNMENT( #4, #5, ( #37 ) );
#15 = CC_DESIGN_DATE_AND_TIME_ASSIGNMENT( #4, #6, ( #35 ) );
#16 = CC_DESIGN_PERSON_AND_ORGANIZATION_ASSIGNMENT( #32, #10, ( #38 ) );
#17 = CC_DESIGN_PERSON_AND_ORGANIZATION_ASSIGNMENT( #32, #7, ( #37 ) );
#18 = CC_DESIGN_PERSON_AND_ORGANIZATION_ASSIGNMENT( #32, #7, ( #36 ) );
#19 = CC_DESIGN_PERSON_AND_ORGANIZATION_ASSIGNMENT( #32, #8, ( #36 ) );
#20 = CC_DESIGN_SECURITY_CLASSIFICATION( #35, ( #36 ) );
#21 = CC_DESIGN_PERSON_AND_ORGANIZATION_ASSIGNMENT( #32, #9, ( #35 ) );
#22 = SHAPE_DEFINITION_REPRESENTATION( #39, #40 );
#23 =  ( GEOMETRIC_REPRESENTATION_CONTEXT( 3 )GLOBAL_UNCERTAINTY_ASSIGNED_CONTEXT( ( #43 ) )GLOBAL_UNIT_ASSIGNED_CONTEXT( ( #45, #46, #47 ) )REPRESENTATION_CONTEXT( 'NONE', 'WORKSPACE' ) );
#27 = APPLICATION_CONTEXT( 'CONFIGURATION CONTROLLED 3D DESIGNS OF MECHANICAL PARTS AND ASSEMBLIES' );
#28 = PRODUCT_CATEGORY( 'part', 'NONE' );
#29 = PRODUCT_RELATED_PRODUCT_CATEGORY( 'detail', ' ', ( #38 ) );
#30 = CALENDAR_DATE( 2024, 12, 6 );
#31 = LOCAL_TIME( 7, 29, 37.0000000000000, #49 );
#32 = PERSON_AND_ORGANIZATION( #50, #51 );
#33 = APPROVAL( #52, 'SOLID MODEL' );
#34 = APPROVAL_ROLE( 'APPROVED' );
#35 = SECURITY_CLASSIFICATION( '', '', #53 );
#36 = PRODUCT_DEFINITION_FORMATION_WITH_SPECIFIED_SOURCE( ' ', 'NONE', #38, .NOT_KNOWN. );
#37 = PRODUCT_DEFINITION( 'NONE', 'NONE', #36, #1 );
#38 = PRODUCT( '1', '1', 'PART-1-DESC', ( #54 ) );
#39 = PRODUCT_DEFINITION_SHAPE( 'NONE', 'NONE', #37 );
#40 = ADVANCED_BREP_SHAPE_REPRESENTATION( '1', ( #55, #56 ), #23 );
#43 = UNCERTAINTY_MEASURE_WITH_UNIT( LENGTH_MEASURE( 0.00100000000000000 ), #45, '', '' );
#45 =  ( CONVERSION_BASED_UNIT( 'MILLIMETRE', #59 )LENGTH_UNIT(  )NAMED_UNIT( #62 ) );
#46 =  ( NAMED_UNIT( #64 )PLANE_ANGLE_UNIT(  )SI_UNIT( $, .RADIAN. ) );
#47 =  ( NAMED_UNIT( #64 )SI_UNIT( $, .STERADIAN. )SOLID_ANGLE_UNIT(  ) );
#49 = COORDINATED_UNIVERSAL_TIME_OFFSET( 1, 0, .AHEAD. );
#50 = PERSON( '', 'UNSPECIFIED', $, $, $, $ );
#51 = ORGANIZATION( 'UNSPECIFIED', 'UNSPECIFIED', 'UNSPECIFIED' );
#52 = APPROVAL_STATUS( 'approved' );
#53 = SECURITY_CLASSIFICATION_LEVEL( 'unclassified' );
#54 = MECHANICAL_CONTEXT( '', #27, 'mechanical' );
#55 = MANIFOLD_SOLID_BREP( '1', #70 );
#56 = AXIS2_PLACEMENT_3D( '', #71, #72, #73 );
#59 = LENGTH_MEASURE_WITH_UNIT( LENGTH_MEASURE( 1.00000000000000 ), #74 );
#62 = DIMENSIONAL_EXPONENTS( 1.00000000000000, 0.000000000000000, 0.000000000000000, 0.000000000000000, 0.000000000000000, 0.000000000000000, 0.000000000000000 );
#64 = DIMENSIONAL_EXPONENTS( 0.000000000000000, 0.000000000000000, 0.000000000000000, 0.000000000000000, 0.000000000000000, 0.000000000000000, 0.000000000000000 );
#70 = CLOSED_SHELL( '', ( #75, #76, #77, #78, #79, #80, #81, #82, #83, #84 ) );
#71 = CARTESIAN_POINT( '', ( 0.000000000000000, 0.000000000000000, 0.000000000000000 ) );
#72 = DIRECTION( '', ( 0.000000000000000, 0.000000000000000, 1.00000000000000 ) );
#73 = DIRECTION( '', ( 1.00000000000000, 0.000000000000000, 0.000000000000000 ) );
#74 =  ( LENGTH_UNIT(  )NAMED_UNIT( #62 )SI_UNIT( .MILLI., .METRE. ) );
#75 = ADVANCED_FACE( '', ( #86 ), #87, .T. );
#76 = ADVANCED_FACE( '', ( #88 ), #89, .T. );
#77 = ADVANCED_FACE( '', ( #90 ), #91, .F. );
#78 = ADVANCED_FACE( '', ( #92, #93 ), #94, .F. );
#79 = ADVANCED_FACE( '', ( #95 ), #96, .F. );
#80 = ADVANCED_FACE( '', ( #97 ), #98, .F. );
#81 = ADVANCED_FACE( '', ( #99 ), #100, .T. );
#82 = ADVANCED_FACE( '', ( #101, #102 ), #103, .T. );
#83 = ADVANCED_FACE( '', ( #104 ), #105, .T. );
#84 = ADVANCED_FACE( '', ( #106 ), #107, .T. );
#86 = FACE_OUTER_BOUND( '', #108, .T. );
#87 = PLANE( '', #109 );
#88 = FACE_OUTER_BOUND( '', #110, .T. );
#89 = PLANE( '', #111 );
#90 = FACE_OUTER_BOUND( '', #112, .T. );
#91 = CYLINDRICAL_SURFACE( '', #113, 14.9999999997000 );
#92 = FACE_OUTER_BOUND( '', #114, .T. );
#93 = FACE_BOUND( '', #115, .T. );
#94 = PLANE( '', #116 );
#95 = FACE_OUTER_BOUND( '', #117, .T. );
#96 = CYLINDRICAL_SURFACE( '', #118, 14.9999999997000 );
#97 = FACE_OUTER_BOUND( '', #119, .T. );
#98 = CYLINDRICAL_SURFACE( '', #120, 14.9999999997000 );
#99 = FACE_OUTER_BOUND( '', #121, .T. );
#100 = PLANE( '', #122 );
#101 = FACE_OUTER_BOUND( '', #123, .T. );
#102 = FACE_BOUND( '', #124, .T. );
#103 = PLANE( '', #125 );
#104 = FACE_OUTER_BOUND( '', #126, .T. );
#105 = CYLINDRICAL_SURFACE( '', #127, 30.0000000000000 );
#106 = FACE_OUTER_BOUND( '', #128, .T. );
#107 = CYLINDRICAL_SURFACE( '', #129, 30.0000000000000 );
#108 = EDGE_LOOP( '', ( #130, #131, #132, #133 ) );
#109 = AXIS2_PLACEMENT_3D( '', #134, #135, #136 );
#110 = EDGE_LOOP( '', ( #137, #138, #139, #140 ) );
#111 = AXIS2_PLACEMENT_3D( '', #141, #142, #143 );
#112 = EDGE_LOOP( '', ( #144, #145, #146, #147 ) );
#113 = AXIS2_PLACEMENT_3D( '', #148, #149, #150 );
#114 = EDGE_LOOP( '', ( #151, #152 ) );
#115 = EDGE_LOOP( '', ( #153, #154, #155, #156, #157, #158 ) );
#116 = AXIS2_PLACEMENT_3D( '', #159, #160, #161 );
#117 = EDGE_LOOP( '', ( #162, #163, #164, #165 ) );
#118 = AXIS2_PLACEMENT_3D( '', #166, #167, #168 );
#119 = EDGE_LOOP( '', ( #169, #170, #171, #172 ) );
#120 = AXIS2_PLACEMENT_3D( '', #173, #174, #175 );
#121 = EDGE_LOOP( '', ( #176, #177, #178, #179 ) );
#122 = AXIS2_PLACEMENT_3D( '', #180, #181, #182 );
#123 = EDGE_LOOP( '', ( #183, #184 ) );
#124 = EDGE_LOOP( '', ( #185, #186, #187, #188, #189, #190 ) );
#125 = AXIS2_PLACEMENT_3D( '', #191, #192, #193 );
#126 = EDGE_LOOP( '', ( #194, #195, #196, #197 ) );
#127 = AXIS2_PLACEMENT_3D( '', #198, #199, #200 );
#128 = EDGE_LOOP( '', ( #201, #202, #203, #204 ) );
#129 = AXIS2_PLACEMENT_3D( '', #205, #206, #207 );
#130 = ORIENTED_EDGE( '', *, *, #208, .F. );
#131 = ORIENTED_EDGE( '', *, *, #209, .T. );
#132 = ORIENTED_EDGE( '', *, *, #210, .T. );
#133 = ORIENTED_EDGE( '', *, *, #211, .F. );
#134 = CARTESIAN_POINT( '', ( 14730.9120744000, -318.946909871000, 2456.13442204000 ) );
#135 = DIRECTION( '', ( 0.0178742800007996, -0.000143026946083997, -0.999840232065977 ) );
#136 = DIRECTION( '', ( 0.000000000000000, -0.999999989768377, 0.000143049799391510 ) );
#137 = ORIENTED_EDGE( '', *, *, #212, .F. );
#138 = ORIENTED_EDGE( '', *, *, #210, .F. );
#139 = ORIENTED_EDGE( '', *, *, #213, .T. );
#140 = ORIENTED_EDGE( '', *, *, #214, .T. );
#141 = CARTESIAN_POINT( '', ( 14730.9824507000, -312.447290877000, 2456.13475040000 ) );
#142 = DIRECTION( '', ( -0.0108271178384975, -0.999941383765769, -5.05164444195883E-005 ) );
#143 = DIRECTION( '', ( -0.999941385041650, 0.0108271178523124, -8.76320620575374E-023 ) );
#144 = ORIENTED_EDGE( '', *, *, #214, .F. );
#145 = ORIENTED_EDGE( '', *, *, #215, .F. );
#146 = ORIENTED_EDGE( '', *, *, #216, .F. );
#147 = ORIENTED_EDGE( '', *, *, #217, .T. );
#148 = CARTESIAN_POINT( '', ( 14747.0744863000, -315.870801770000, 2437.91996346000 ) );
#149 = DIRECTION( '', ( -0.999781617971527, 0.0108262909573062, -0.0178747808474098 ) );
#150 = DIRECTION( '', ( 0.0208964350710045, 0.527544857055114, -0.849270135349185 ) );
#151 = ORIENTED_EDGE( '', *, *, #218, .F. );
#152 = ORIENTED_EDGE( '', *, *, #219, .F. );
#153 = ORIENTED_EDGE( '', *, *, #213, .F. );
#154 = ORIENTED_EDGE( '', *, *, #209, .F. );
#155 = ORIENTED_EDGE( '', *, *, #220, .F. );
#156 = ORIENTED_EDGE( '', *, *, #221, .T. );
#157 = ORIENTED_EDGE( '', *, *, #222, .T. );
#158 = ORIENTED_EDGE( '', *, *, #215, .T. );
#159 = CARTESIAN_POINT( '', ( 14771.8243789000, -159.959000868000, 264.100798358000 ) );
#160 = DIRECTION( '', ( 0.999781617971528, -0.0108262909572949, 0.0178747808473916 ) );
#161 = DIRECTION( '', ( 0.000000000000000, -0.855344352036392, -0.518059880167771 ) );
#162 = ORIENTED_EDGE( '', *, *, #223, .F. );
#163 = ORIENTED_EDGE( '', *, *, #224, .T. );
#164 = ORIENTED_EDGE( '', *, *, #216, .T. );
#165 = ORIENTED_EDGE( '', *, *, #222, .F. );
#166 = CARTESIAN_POINT( '', ( 14747.0744863000, -315.870801770000, 2437.91996346000 ) );
#167 = DIRECTION( '', ( -0.999781617971527, 0.0108262909573062, -0.0178747808474098 ) );
#168 = DIRECTION( '', ( 0.0208964350710045, 0.527544857055114, -0.849270135349185 ) );
#169 = ORIENTED_EDGE( '', *, *, #225, .T. );
#170 = ORIENTED_EDGE( '', *, *, #226, .T. );
#171 = ORIENTED_EDGE( '', *, *, #223, .T. );
#172 = ORIENTED_EDGE( '', *, *, #221, .F. );
#173 = CARTESIAN_POINT( '', ( 14747.0744863000, -315.870801770000, 2437.91996346000 ) );
#174 = DIRECTION( '', ( -0.999781617971527, 0.0108262909573062, -0.0178747808474098 ) );
#175 = DIRECTION( '', ( 0.0208964350710045, 0.527544857055114, -0.849270135349185 ) );
#176 = ORIENTED_EDGE( '', *, *, #220, .T. );
#177 = ORIENTED_EDGE( '', *, *, #208, .T. );
#178 = ORIENTED_EDGE( '', *, *, #227, .F. );
#179 = ORIENTED_EDGE( '', *, *, #225, .F. );
#180 = CARTESIAN_POINT( '', ( 14730.9835716000, -318.947481979000, 2452.13506111000 ) );
#181 = DIRECTION( '', ( 0.0108271178384975, 0.999941383765769, 5.05164444266883E-005 ) );
#182 = DIRECTION( '', ( 0.00466568253354618, -6.77586637898130E-021, -0.999989115644013 ) );
#183 = ORIENTED_EDGE( '', *, *, #228, .T. );
#184 = ORIENTED_EDGE( '', *, *, #229, .T. );
#185 = ORIENTED_EDGE( '', *, *, #217, .F. );
#186 = ORIENTED_EDGE( '', *, *, #224, .F. );
#187 = ORIENTED_EDGE( '', *, *, #226, .F. );
#188 = ORIENTED_EDGE( '', *, *, #227, .T. );
#189 = ORIENTED_EDGE( '', *, *, #211, .T. );
#190 = ORIENTED_EDGE( '', *, *, #212, .T. );
#191 = CARTESIAN_POINT( '', ( 14803.4174781000, -160.301111662000, 264.665641433000 ) );
#192 = DIRECTION( '', ( 0.999781617971528, -0.0108262909572949, 0.0178747808473916 ) );
#193 = DIRECTION( '', ( 0.000000000000000, -0.855344352036392, -0.518059880167771 ) );
#194 = ORIENTED_EDGE( '', *, *, #218, .T. );
#195 = ORIENTED_EDGE( '', *, *, #230, .F. );
#196 = ORIENTED_EDGE( '', *, *, #229, .F. );
#197 = ORIENTED_EDGE( '', *, *, #231, .T. );
#198 = CARTESIAN_POINT( '', ( 14747.0744863000, -315.870801770000, 2437.91996346000 ) );
#199 = DIRECTION( '', ( -0.999781617971528, 0.0108262909572881, -0.0178747808473916 ) );
#200 = DIRECTION( '', ( 0.0108280209140012, 0.999941375263113, -2.47768054226369E-014 ) );
#201 = ORIENTED_EDGE( '', *, *, #219, .T. );
#202 = ORIENTED_EDGE( '', *, *, #231, .F. );
#203 = ORIENTED_EDGE( '', *, *, #228, .F. );
#204 = ORIENTED_EDGE( '', *, *, #230, .T. );
#205 = CARTESIAN_POINT( '', ( 14747.0744863000, -315.870801770000, 2437.91996346000 ) );
#206 = DIRECTION( '', ( -0.999781617971528, 0.0108262909572881, -0.0178747808473916 ) );
#207 = DIRECTION( '', ( 0.0108280209140012, 0.999941375263113, -2.47768054226369E-014 ) );
#208 = EDGE_CURVE( '', #232, #233, #234, .T. );
#209 = EDGE_CURVE( '', #232, #235, #236, .T. );
#210 = EDGE_CURVE( '', #235, #237, #238, .T. );
#211 = EDGE_CURVE( '', #233, #237, #239, .T. );
#212 = EDGE_CURVE( '', #237, #240, #241, .T. );
#213 = EDGE_CURVE( '', #235, #242, #243, .T. );
#214 = EDGE_CURVE( '', #242, #240, #244, .T. );
#215 = EDGE_CURVE( '', #245, #242, #246, .T. );
#216 = EDGE_CURVE( '', #247, #245, #248, .T. );
#217 = EDGE_CURVE( '', #247, #240, #249, .T. );
#218 = EDGE_CURVE( '', #250, #251, #252, .T. );
#219 = EDGE_CURVE( '', #251, #250, #253, .T. );
#220 = EDGE_CURVE( '', #254, #232, #255, .T. );
#221 = EDGE_CURVE( '', #254, #256, #257, .T. );
#222 = EDGE_CURVE( '', #256, #245, #258, .T. );
#223 = EDGE_CURVE( '', #259, #256, #260, .T. );
#224 = EDGE_CURVE( '', #259, #247, #261, .T. );
#225 = EDGE_CURVE( '', #254, #262, #263, .T. );
#226 = EDGE_CURVE( '', #262, #259, #264, .T. );
#227 = EDGE_CURVE( '', #262, #233, #265, .T. );
#228 = EDGE_CURVE( '', #266, #267, #268, .T. );
#229 = EDGE_CURVE( '', #267, #266, #269, .T. );
#230 = EDGE_CURVE( '', #266, #251, #270, .T. );
#231 = EDGE_CURVE( '', #267, #250, #271, .T. );
#232 = VERTEX_POINT( '', #272 );
#233 = VERTEX_POINT( '', #273 );
#234 = LINE( '', #274, #275 );
#235 = VERTEX_POINT( '', #276 );
#236 = LINE( '', #277, #278 );
#237 = VERTEX_POINT( '', #279 );
#238 = LINE( '', #280, #281 );
#239 = LINE( '', #282, #283 );
#240 = VERTEX_POINT( '', #284 );
#241 = LINE( '', #285, #286 );
#242 = VERTEX_POINT( '', #287 );
#243 = LINE( '', #288, #289 );
#244 = LINE( '', #290, #291 );
#245 = VERTEX_POINT( '', #292 );
#246 = CIRCLE( '', #293, 14.9999999997000 );
#247 = VERTEX_POINT( '', #294 );
#248 = LINE( '', #295, #296 );
#249 = CIRCLE( '', #297, 14.9999999997000 );
#250 = VERTEX_POINT( '', #298 );
#251 = VERTEX_POINT( '', #299 );
#252 = CIRCLE( '', #300, 30.0000000000000 );
#253 = CIRCLE( '', #301, 30.0000000000000 );
#254 = VERTEX_POINT( '', #302 );
#255 = LINE( '', #303, #304 );
#256 = VERTEX_POINT( '', #305 );
#257 = CIRCLE( '', #306, 14.9999999997000 );
#258 = CIRCLE( '', #307, 14.9999999997000 );
#259 = VERTEX_POINT( '', #308 );
#260 = LINE( '', #309, #310 );
#261 = CIRCLE( '', #311, 14.9999999997000 );
#262 = VERTEX_POINT( '', #312 );
#263 = LINE( '', #313, #314 );
#264 = CIRCLE( '', #315, 14.9999999997000 );
#265 = LINE( '', #316, #317 );
#266 = VERTEX_POINT( '', #318 );
#267 = VERTEX_POINT( '', #319 );
#268 = CIRCLE( '', #320, 30.0000000000000 );
#269 = CIRCLE( '', #321, 30.0000000000000 );
#270 = LINE( '', #322, #323 );
#271 = LINE( '', #324, #325 );
#272 = CARTESIAN_POINT( '', ( 14730.9120744000, -318.946909871000, 2456.13442204000 ) );
#273 = CARTESIAN_POINT( '', ( 14762.5051736000, -319.289020665000, 2456.69926511000 ) );
#274 = CARTESIAN_POINT( '', ( 14746.7086240000, -319.117965268000, 2456.41684358000 ) );
#275 = VECTOR( '', #326, 1000.00000000000 );
#276 = CARTESIAN_POINT( '', ( 14730.9824507000, -312.447290877000, 2456.13475040000 ) );
#277 = CARTESIAN_POINT( '', ( 14730.9472626000, -315.697100374000, 2456.13458622000 ) );
#278 = VECTOR( '', #327, 1000.00000000000 );
#279 = CARTESIAN_POINT( '', ( 14762.5755498000, -312.789401671000, 2456.69959347000 ) );
#280 = CARTESIAN_POINT( '', ( 14746.7790003000, -312.618346274000, 2456.41717193000 ) );
#281 = VECTOR( '', #328, 1000.00000000000 );
#282 = CARTESIAN_POINT( '', ( 14762.5403617000, -316.039211168000, 2456.69942929000 ) );
#283 = VECTOR( '', #329, 1000.00000000000 );
#284 = CARTESIAN_POINT( '', ( 14762.6444787000, -312.789953228000, 2452.84389423000 ) );
#285 = CARTESIAN_POINT( '', ( 14762.6100143000, -312.789677449000, 2454.77174385000 ) );
#286 = VECTOR( '', #330, 1000.00000000000 );
#287 = CARTESIAN_POINT( '', ( 14731.0513796000, -312.447842434000, 2452.27905116000 ) );
#288 = CARTESIAN_POINT( '', ( 14731.0169151000, -312.447566655000, 2454.20690078000 ) );
#289 = VECTOR( '', #331, 1000.00000000000 );
#290 = CARTESIAN_POINT( '', ( 14746.8479291000, -312.618897831000, 2452.56147269000 ) );
#291 = VECTOR( '', #332, 1000.00000000000 );
#292 = CARTESIAN_POINT( '', ( 14731.5913833000, -307.786573517000, 2424.89848989000 ) );
#293 = AXIS2_PLACEMENT_3D( '', #333, #334, #335 );
#294 = CARTESIAN_POINT( '', ( 14763.1844824000, -308.128684311000, 2425.46333297000 ) );
#295 = CARTESIAN_POINT( '', ( 14747.3879328000, -307.957628914000, 2425.18091143000 ) );
#296 = VECTOR( '', #336, 1000.00000000000 );
#297 = AXIS2_PLACEMENT_3D( '', #337, #338, #339 );
#298 = CARTESIAN_POINT( '', ( 14730.9530961000, -345.697987630000, 2437.63754192000 ) );
#299 = CARTESIAN_POINT( '', ( 14731.6027774000, -285.701505115000, 2437.63754192000 ) );
#300 = AXIS2_PLACEMENT_3D( '', #340, #341, #342 );
#301 = AXIS2_PLACEMENT_3D( '', #343, #344, #345 );
#302 = CARTESIAN_POINT( '', ( 14730.9810033000, -318.947461428000, 2452.27872280000 ) );
#303 = CARTESIAN_POINT( '', ( 14730.9465389000, -318.947185650000, 2454.20657242000 ) );
#304 = VECTOR( '', #346, 1000.00000000000 );
#305 = CARTESIAN_POINT( '', ( 14730.9644902000, -323.612919228000, 2450.37659395000 ) );
#306 = AXIS2_PLACEMENT_3D( '', #347, #348, #349 );
#307 = AXIS2_PLACEMENT_3D( '', #350, #351, #352 );
#308 = CARTESIAN_POINT( '', ( 14762.5575894000, -323.955030022000, 2450.94143703000 ) );
#309 = CARTESIAN_POINT( '', ( 14746.7610398000, -323.783974625000, 2450.65901549000 ) );
#310 = VECTOR( '', #353, 1000.00000000000 );
#311 = AXIS2_PLACEMENT_3D( '', #354, #355, #356 );
#312 = CARTESIAN_POINT( '', ( 14762.5741024000, -319.289572222000, 2452.84356587000 ) );
#313 = CARTESIAN_POINT( '', ( 14746.7775529000, -319.118516825000, 2452.56114434000 ) );
#314 = VECTOR( '', #357, 1000.00000000000 );
#315 = AXIS2_PLACEMENT_3D( '', #358, #359, #360 );
#316 = CARTESIAN_POINT( '', ( 14762.5396380000, -319.289296444000, 2454.77141549000 ) );
#317 = VECTOR( '', #361, 1000.00000000000 );
#318 = CARTESIAN_POINT( '', ( 14763.1958765000, -286.043615909000, 2438.20238500000 ) );
#319 = CARTESIAN_POINT( '', ( 14762.5461953000, -346.040098425000, 2438.20238500000 ) );
#320 = AXIS2_PLACEMENT_3D( '', #362, #363, #364 );
#321 = AXIS2_PLACEMENT_3D( '', #365, #366, #367 );
#322 = CARTESIAN_POINT( '', ( 14747.3993269000, -285.872560512000, 2437.91996346000 ) );
#323 = VECTOR( '', #368, 1000.00000000000 );
#324 = CARTESIAN_POINT( '', ( 14746.7496457000, -345.869043027000, 2437.91996346000 ) );
#325 = VECTOR( '', #369, 1000.00000000000 );
#326 = DIRECTION( '', ( 0.999781617971528, -0.0108262909572949, 0.0178747808473916 ) );
#327 = DIRECTION( '', ( 0.0108271178384975, 0.999941383765769, 5.05164443893883E-005 ) );
#328 = DIRECTION( '', ( 0.999781617971528, -0.0108262909572949, 0.0178747808473916 ) );
#329 = DIRECTION( '', ( 0.0108271178384975, 0.999941383765769, 5.05164443893883E-005 ) );
#330 = DIRECTION( '', ( 0.0178742800008995, -0.000143026946030996, -0.999840232065975 ) );
#331 = DIRECTION( '', ( 0.0178742800008995, -0.000143026946030996, -0.999840232065975 ) );
#332 = DIRECTION( '', ( 0.999781617971528, -0.0108262909572949, 0.0178747808473916 ) );
#333 = CARTESIAN_POINT( '', ( 14731.2779368000, -315.699746372000, 2437.63754192000 ) );
#334 = DIRECTION( '', ( 0.999781617971528, -0.0108262909572960, 0.0178747808473933 ) );
#335 = DIRECTION( '', ( 0.0208977598377043, 0.517946745200270, -0.855157560201751 ) );
#336 = DIRECTION( '', ( -0.999781617971528, 0.0108262909572949, -0.0178747808473916 ) );
#337 = CARTESIAN_POINT( '', ( 14762.8710359000, -316.041857167000, 2438.20238500000 ) );
#338 = DIRECTION( '', ( 0.999781617971528, -0.0108262909572960, 0.0178747808473933 ) );
#339 = DIRECTION( '', ( 0.0208977598377043, 0.517946745200270, -0.855157560201751 ) );
#340 = CARTESIAN_POINT( '', ( 14731.2779368000, -315.699746372000, 2437.63754192000 ) );
#341 = DIRECTION( '', ( 0.999781617971528, -0.0108262909572960, 0.0178747808473933 ) );
#342 = DIRECTION( '', ( 0.0208977598377043, 0.517946745200270, -0.855157560201751 ) );
#343 = CARTESIAN_POINT( '', ( 14731.2779368000, -315.699746372000, 2437.63754192000 ) );
#344 = DIRECTION( '', ( 0.999781617971528, -0.0108262909572960, 0.0178747808473933 ) );
#345 = DIRECTION( '', ( 0.0208977598377043, 0.517946745200270, -0.855157560201751 ) );
#346 = DIRECTION( '', ( -0.0178742800008995, 0.000143026946030996, 0.999840232065975 ) );
#347 = CARTESIAN_POINT( '', ( 14731.2779368000, -315.699746372000, 2437.63754192000 ) );
#348 = DIRECTION( '', ( 0.999781617971528, -0.0108262909572960, 0.0178747808473933 ) );
#349 = DIRECTION( '', ( 0.0208977598377043, 0.517946745200270, -0.855157560201751 ) );
#350 = CARTESIAN_POINT( '', ( 14731.2779368000, -315.699746372000, 2437.63754192000 ) );
#351 = DIRECTION( '', ( 0.999781617971528, -0.0108262909572960, 0.0178747808473933 ) );
#352 = DIRECTION( '', ( 0.0208977598377043, 0.517946745200270, -0.855157560201751 ) );
#353 = DIRECTION( '', ( -0.999781617971528, 0.0108262909572949, -0.0178747808473916 ) );
#354 = CARTESIAN_POINT( '', ( 14762.8710359000, -316.041857167000, 2438.20238500000 ) );
#355 = DIRECTION( '', ( 0.999781617971528, -0.0108262909572960, 0.0178747808473933 ) );
#356 = DIRECTION( '', ( 0.0208977598377043, 0.517946745200270, -0.855157560201751 ) );
#357 = DIRECTION( '', ( 0.999781617971528, -0.0108262909572949, 0.0178747808473916 ) );
#358 = CARTESIAN_POINT( '', ( 14762.8710359000, -316.041857167000, 2438.20238500000 ) );
#359 = DIRECTION( '', ( 0.999781617971528, -0.0108262909572960, 0.0178747808473933 ) );
#360 = DIRECTION( '', ( 0.0208977598377043, 0.517946745200270, -0.855157560201751 ) );
#361 = DIRECTION( '', ( -0.0178742800008995, 0.000143026946030996, 0.999840232065975 ) );
#362 = CARTESIAN_POINT( '', ( 14762.8710359000, -316.041857167000, 2438.20238500000 ) );
#363 = DIRECTION( '', ( 0.999781617971528, -0.0108262909572960, 0.0178747808473933 ) );
#364 = DIRECTION( '', ( 0.0208977598377043, 0.517946745200270, -0.855157560201751 ) );
#365 = CARTESIAN_POINT( '', ( 14762.8710359000, -316.041857167000, 2438.20238500000 ) );
#366 = DIRECTION( '', ( 0.999781617971528, -0.0108262909572960, 0.0178747808473933 ) );
#367 = DIRECTION( '', ( 0.0208977598377043, 0.517946745200270, -0.855157560201751 ) );
#368 = DIRECTION( '', ( -0.999781617971528, 0.0108262909572949, -0.0178747808473916 ) );
#369 = DIRECTION( '', ( -0.999781617971528, 0.0108262909572949, -0.0178747808473916 ) );
ENDSEC;
END-ISO-10303-21;
