ISO-10303-21;
HEADER;
/* Generated by software containing ST-Developer
 * from STEP Tools, Inc. (www.steptools.com) 
 */

FILE_DESCRIPTION(
/* description */ (''),
/* implementation_level */ '2;1');

FILE_NAME(
/* name */ 'Entretoise.stp',
/* time_stamp */ '2024-07-05T11:33:18+02:00',
/* author */ ('n.lesniewski'),
/* organization */ (''),
/* preprocessor_version */ 'ST-DEVELOPER v20',
/* originating_system */ 'Autodesk Inventor 2025',
/* authorisation */ '');

FILE_SCHEMA (('AUTOMOTIVE_DESIGN { 1 0 10303 214 3 1 1 }'));
ENDSEC;

DATA;
#10=MECHANICAL_DESIGN_GEOMETRIC_PRESENTATION_REPRESENTATION('',(#144,#145,
#146,#147,#148,#149,#150,#151,#152),#278);
#11=SHAPE_REPRESENTATION_RELATIONSHIP('SRR','None',#285,#12);
#12=ADVANCED_BREP_SHAPE_REPRESENTATION('',(#13),#277);
#13=MANIFOLD_SOLID_BREP('Solide1',#161);
#14=FACE_BOUND('',#39,.T.);
#15=FACE_BOUND('',#40,.T.);
#16=FACE_BOUND('',#42,.T.);
#17=FACE_BOUND('',#43,.T.);
#18=PLANE('',#190);
#19=PLANE('',#191);
#20=PLANE('',#192);
#21=PLANE('',#193);
#22=PLANE('',#194);
#23=PLANE('',#195);
#24=FACE_OUTER_BOUND('',#32,.T.);
#25=FACE_OUTER_BOUND('',#33,.T.);
#26=FACE_OUTER_BOUND('',#34,.T.);
#27=FACE_OUTER_BOUND('',#35,.T.);
#28=FACE_OUTER_BOUND('',#36,.T.);
#29=FACE_OUTER_BOUND('',#37,.T.);
#30=FACE_OUTER_BOUND('',#38,.T.);
#31=FACE_OUTER_BOUND('',#41,.T.);
#32=EDGE_LOOP('',(#106,#107,#108,#109));
#33=EDGE_LOOP('',(#110,#111,#112,#113));
#34=EDGE_LOOP('',(#114,#115,#116,#117));
#35=EDGE_LOOP('',(#118,#119,#120,#121));
#36=EDGE_LOOP('',(#122,#123,#124,#125));
#37=EDGE_LOOP('',(#126,#127,#128,#129));
#38=EDGE_LOOP('',(#130,#131,#132,#133));
#39=EDGE_LOOP('',(#134));
#40=EDGE_LOOP('',(#135));
#41=EDGE_LOOP('',(#136,#137,#138,#139));
#42=EDGE_LOOP('',(#140));
#43=EDGE_LOOP('',(#141));
#44=LINE('',#241,#58);
#45=LINE('',#247,#59);
#46=LINE('',#252,#60);
#47=LINE('',#254,#61);
#48=LINE('',#256,#62);
#49=LINE('',#257,#63);
#50=LINE('',#260,#64);
#51=LINE('',#262,#65);
#52=LINE('',#263,#66);
#53=LINE('',#266,#67);
#54=LINE('',#268,#68);
#55=LINE('',#269,#69);
#56=LINE('',#271,#70);
#57=LINE('',#272,#71);
#58=VECTOR('',#202,5.65);
#59=VECTOR('',#209,5.65);
#60=VECTOR('',#214,10.);
#61=VECTOR('',#215,10.);
#62=VECTOR('',#216,10.);
#63=VECTOR('',#217,10.);
#64=VECTOR('',#220,10.);
#65=VECTOR('',#221,10.);
#66=VECTOR('',#222,10.);
#67=VECTOR('',#225,10.);
#68=VECTOR('',#226,10.);
#69=VECTOR('',#227,10.);
#70=VECTOR('',#230,10.);
#71=VECTOR('',#231,10.);
#72=CIRCLE('',#185,5.65);
#73=CIRCLE('',#186,5.65);
#74=CIRCLE('',#188,5.65);
#75=CIRCLE('',#189,5.65);
#76=VERTEX_POINT('',#238);
#77=VERTEX_POINT('',#240);
#78=VERTEX_POINT('',#244);
#79=VERTEX_POINT('',#246);
#80=VERTEX_POINT('',#250);
#81=VERTEX_POINT('',#251);
#82=VERTEX_POINT('',#253);
#83=VERTEX_POINT('',#255);
#84=VERTEX_POINT('',#259);
#85=VERTEX_POINT('',#261);
#86=VERTEX_POINT('',#265);
#87=VERTEX_POINT('',#267);
#88=EDGE_CURVE('',#76,#76,#72,.T.);
#89=EDGE_CURVE('',#76,#77,#44,.T.);
#90=EDGE_CURVE('',#77,#77,#73,.T.);
#91=EDGE_CURVE('',#78,#78,#74,.T.);
#92=EDGE_CURVE('',#78,#79,#45,.T.);
#93=EDGE_CURVE('',#79,#79,#75,.T.);
#94=EDGE_CURVE('',#80,#81,#46,.T.);
#95=EDGE_CURVE('',#81,#82,#47,.T.);
#96=EDGE_CURVE('',#83,#82,#48,.T.);
#97=EDGE_CURVE('',#80,#83,#49,.T.);
#98=EDGE_CURVE('',#84,#80,#50,.T.);
#99=EDGE_CURVE('',#85,#83,#51,.T.);
#100=EDGE_CURVE('',#84,#85,#52,.T.);
#101=EDGE_CURVE('',#86,#84,#53,.T.);
#102=EDGE_CURVE('',#87,#85,#54,.T.);
#103=EDGE_CURVE('',#86,#87,#55,.T.);
#104=EDGE_CURVE('',#81,#86,#56,.T.);
#105=EDGE_CURVE('',#82,#87,#57,.T.);
#106=ORIENTED_EDGE('',*,*,#88,.F.);
#107=ORIENTED_EDGE('',*,*,#89,.T.);
#108=ORIENTED_EDGE('',*,*,#90,.T.);
#109=ORIENTED_EDGE('',*,*,#89,.F.);
#110=ORIENTED_EDGE('',*,*,#91,.F.);
#111=ORIENTED_EDGE('',*,*,#92,.T.);
#112=ORIENTED_EDGE('',*,*,#93,.T.);
#113=ORIENTED_EDGE('',*,*,#92,.F.);
#114=ORIENTED_EDGE('',*,*,#94,.T.);
#115=ORIENTED_EDGE('',*,*,#95,.T.);
#116=ORIENTED_EDGE('',*,*,#96,.F.);
#117=ORIENTED_EDGE('',*,*,#97,.F.);
#118=ORIENTED_EDGE('',*,*,#98,.T.);
#119=ORIENTED_EDGE('',*,*,#97,.T.);
#120=ORIENTED_EDGE('',*,*,#99,.F.);
#121=ORIENTED_EDGE('',*,*,#100,.F.);
#122=ORIENTED_EDGE('',*,*,#101,.T.);
#123=ORIENTED_EDGE('',*,*,#100,.T.);
#124=ORIENTED_EDGE('',*,*,#102,.F.);
#125=ORIENTED_EDGE('',*,*,#103,.F.);
#126=ORIENTED_EDGE('',*,*,#104,.T.);
#127=ORIENTED_EDGE('',*,*,#103,.T.);
#128=ORIENTED_EDGE('',*,*,#105,.F.);
#129=ORIENTED_EDGE('',*,*,#95,.F.);
#130=ORIENTED_EDGE('',*,*,#105,.T.);
#131=ORIENTED_EDGE('',*,*,#102,.T.);
#132=ORIENTED_EDGE('',*,*,#99,.T.);
#133=ORIENTED_EDGE('',*,*,#96,.T.);
#134=ORIENTED_EDGE('',*,*,#91,.T.);
#135=ORIENTED_EDGE('',*,*,#88,.T.);
#136=ORIENTED_EDGE('',*,*,#104,.F.);
#137=ORIENTED_EDGE('',*,*,#94,.F.);
#138=ORIENTED_EDGE('',*,*,#98,.F.);
#139=ORIENTED_EDGE('',*,*,#101,.F.);
#140=ORIENTED_EDGE('',*,*,#93,.F.);
#141=ORIENTED_EDGE('',*,*,#90,.F.);
#142=CYLINDRICAL_SURFACE('',#184,5.65);
#143=CYLINDRICAL_SURFACE('',#187,5.65);
#144=STYLED_ITEM('',(#297),#153);
#145=STYLED_ITEM('',(#297),#154);
#146=STYLED_ITEM('',(#297),#155);
#147=STYLED_ITEM('',(#297),#156);
#148=STYLED_ITEM('',(#297),#157);
#149=STYLED_ITEM('',(#297),#158);
#150=STYLED_ITEM('',(#297),#159);
#151=STYLED_ITEM('',(#297),#160);
#152=STYLED_ITEM('',(#296),#13);
#153=ADVANCED_FACE('',(#24),#142,.F.);
#154=ADVANCED_FACE('',(#25),#143,.F.);
#155=ADVANCED_FACE('',(#26),#18,.T.);
#156=ADVANCED_FACE('',(#27),#19,.T.);
#157=ADVANCED_FACE('',(#28),#20,.T.);
#158=ADVANCED_FACE('',(#29),#21,.T.);
#159=ADVANCED_FACE('',(#30,#14,#15),#22,.T.);
#160=ADVANCED_FACE('',(#31,#16,#17),#23,.F.);
#161=CLOSED_SHELL('',(#153,#154,#155,#156,#157,#158,#159,#160));
#162=DERIVED_UNIT_ELEMENT(#165,1.);
#163=DERIVED_UNIT_ELEMENT(#280,-3.);
#164=DIMENSIONAL_EXPONENTS(0.,1.,0.,0.,0.,0.,0.);
#165=(
CONVERSION_BASED_UNIT('gram',#167)
MASS_UNIT()
NAMED_UNIT(#164)
);
#166=(
MASS_UNIT()
NAMED_UNIT(*)
SI_UNIT(.KILO.,.GRAM.)
);
#167=MASS_MEASURE_WITH_UNIT(MASS_MEASURE(0.001),#166);
#168=DERIVED_UNIT((#162,#163));
#169=MEASURE_REPRESENTATION_ITEM('density measure',
POSITIVE_RATIO_MEASURE(7.85),#168);
#170=PROPERTY_DEFINITION_REPRESENTATION(#175,#172);
#171=PROPERTY_DEFINITION_REPRESENTATION(#176,#173);
#172=REPRESENTATION('material name',(#174),#277);
#173=REPRESENTATION('density',(#169),#277);
#174=DESCRIPTIVE_REPRESENTATION_ITEM('Acier','Acier');
#175=PROPERTY_DEFINITION('material property','material name',#287);
#176=PROPERTY_DEFINITION('material property','density of part',#287);
#177=DATE_TIME_ROLE('creation_date');
#178=APPLIED_DATE_AND_TIME_ASSIGNMENT(#179,#177,(#287));
#179=DATE_AND_TIME(#180,#181);
#180=CALENDAR_DATE(2024,1,7);
#181=LOCAL_TIME(0,0,0.,#182);
#182=COORDINATED_UNIVERSAL_TIME_OFFSET(0,0,.BEHIND.);
#183=AXIS2_PLACEMENT_3D('',#236,#196,#197);
#184=AXIS2_PLACEMENT_3D('',#237,#198,#199);
#185=AXIS2_PLACEMENT_3D('',#239,#200,#201);
#186=AXIS2_PLACEMENT_3D('',#242,#203,#204);
#187=AXIS2_PLACEMENT_3D('',#243,#205,#206);
#188=AXIS2_PLACEMENT_3D('',#245,#207,#208);
#189=AXIS2_PLACEMENT_3D('',#248,#210,#211);
#190=AXIS2_PLACEMENT_3D('',#249,#212,#213);
#191=AXIS2_PLACEMENT_3D('',#258,#218,#219);
#192=AXIS2_PLACEMENT_3D('',#264,#223,#224);
#193=AXIS2_PLACEMENT_3D('',#270,#228,#229);
#194=AXIS2_PLACEMENT_3D('',#273,#232,#233);
#195=AXIS2_PLACEMENT_3D('',#274,#234,#235);
#196=DIRECTION('axis',(0.,0.,1.));
#197=DIRECTION('refdir',(1.,0.,0.));
#198=DIRECTION('center_axis',(0.,0.,1.));
#199=DIRECTION('ref_axis',(-1.,0.,0.));
#200=DIRECTION('center_axis',(0.,0.,-1.));
#201=DIRECTION('ref_axis',(-1.,0.,0.));
#202=DIRECTION('',(0.,0.,-1.));
#203=DIRECTION('center_axis',(0.,0.,-1.));
#204=DIRECTION('ref_axis',(-1.,0.,0.));
#205=DIRECTION('center_axis',(0.,0.,1.));
#206=DIRECTION('ref_axis',(-1.,0.,0.));
#207=DIRECTION('center_axis',(0.,0.,-1.));
#208=DIRECTION('ref_axis',(-1.,0.,0.));
#209=DIRECTION('',(0.,0.,-1.));
#210=DIRECTION('center_axis',(0.,0.,-1.));
#211=DIRECTION('ref_axis',(-1.,0.,0.));
#212=DIRECTION('center_axis',(1.,0.,0.));
#213=DIRECTION('ref_axis',(0.,1.,0.));
#214=DIRECTION('',(0.,1.,0.));
#215=DIRECTION('',(0.,0.,1.));
#216=DIRECTION('',(0.,1.,0.));
#217=DIRECTION('',(0.,0.,1.));
#218=DIRECTION('center_axis',(0.,-1.,0.));
#219=DIRECTION('ref_axis',(1.,0.,0.));
#220=DIRECTION('',(1.,0.,0.));
#221=DIRECTION('',(1.,0.,0.));
#222=DIRECTION('',(0.,0.,1.));
#223=DIRECTION('center_axis',(-1.,0.,0.));
#224=DIRECTION('ref_axis',(0.,-1.,0.));
#225=DIRECTION('',(0.,-1.,0.));
#226=DIRECTION('',(0.,-1.,0.));
#227=DIRECTION('',(0.,0.,1.));
#228=DIRECTION('center_axis',(0.,1.,0.));
#229=DIRECTION('ref_axis',(-1.,0.,0.));
#230=DIRECTION('',(-1.,0.,0.));
#231=DIRECTION('',(-1.,0.,0.));
#232=DIRECTION('center_axis',(0.,0.,1.));
#233=DIRECTION('ref_axis',(1.,0.,0.));
#234=DIRECTION('center_axis',(0.,0.,1.));
#235=DIRECTION('ref_axis',(1.,0.,0.));
#236=CARTESIAN_POINT('',(0.,0.,0.));
#237=CARTESIAN_POINT('Origin',(-11.95,12.65,0.));
#238=CARTESIAN_POINT('',(-6.30000000000001,12.65,87.));
#239=CARTESIAN_POINT('Origin',(-11.95,12.65,87.));
#240=CARTESIAN_POINT('',(-6.30000000000001,12.65,0.));
#241=CARTESIAN_POINT('',(-6.30000000000001,12.65,0.));
#242=CARTESIAN_POINT('Origin',(-11.95,12.65,0.));
#243=CARTESIAN_POINT('Origin',(-11.95,117.35,0.));
#244=CARTESIAN_POINT('',(-6.30000000000001,117.35,87.));
#245=CARTESIAN_POINT('Origin',(-11.95,117.35,87.));
#246=CARTESIAN_POINT('',(-6.30000000000001,117.35,0.));
#247=CARTESIAN_POINT('',(-6.30000000000001,117.35,0.));
#248=CARTESIAN_POINT('Origin',(-11.95,117.35,0.));
#249=CARTESIAN_POINT('Origin',(0.,0.,0.));
#250=CARTESIAN_POINT('',(0.,0.,0.));
#251=CARTESIAN_POINT('',(0.,130.,0.));
#252=CARTESIAN_POINT('',(0.,0.,0.));
#253=CARTESIAN_POINT('',(0.,130.,87.));
#254=CARTESIAN_POINT('',(0.,130.,0.));
#255=CARTESIAN_POINT('',(0.,0.,87.));
#256=CARTESIAN_POINT('',(0.,0.,87.));
#257=CARTESIAN_POINT('',(0.,0.,0.));
#258=CARTESIAN_POINT('Origin',(-25.,0.,0.));
#259=CARTESIAN_POINT('',(-25.,0.,0.));
#260=CARTESIAN_POINT('',(-25.,0.,0.));
#261=CARTESIAN_POINT('',(-25.,0.,87.));
#262=CARTESIAN_POINT('',(-25.,0.,87.));
#263=CARTESIAN_POINT('',(-25.,0.,0.));
#264=CARTESIAN_POINT('Origin',(-25.,130.,0.));
#265=CARTESIAN_POINT('',(-25.,130.,0.));
#266=CARTESIAN_POINT('',(-25.,130.,0.));
#267=CARTESIAN_POINT('',(-25.,130.,87.));
#268=CARTESIAN_POINT('',(-25.,130.,87.));
#269=CARTESIAN_POINT('',(-25.,130.,0.));
#270=CARTESIAN_POINT('Origin',(0.,130.,0.));
#271=CARTESIAN_POINT('',(0.,130.,0.));
#272=CARTESIAN_POINT('',(0.,130.,87.));
#273=CARTESIAN_POINT('Origin',(-12.5,65.,87.));
#274=CARTESIAN_POINT('Origin',(-12.5,65.,0.));
#275=UNCERTAINTY_MEASURE_WITH_UNIT(LENGTH_MEASURE(0.01),#279,
'DISTANCE_ACCURACY_VALUE',
'Maximum model space distance between geometric entities at asserted c
onnectivities');
#276=UNCERTAINTY_MEASURE_WITH_UNIT(LENGTH_MEASURE(0.01),#279,
'DISTANCE_ACCURACY_VALUE',
'Maximum model space distance between geometric entities at asserted c
onnectivities');
#277=(
GEOMETRIC_REPRESENTATION_CONTEXT(3)
GLOBAL_UNCERTAINTY_ASSIGNED_CONTEXT((#275))
GLOBAL_UNIT_ASSIGNED_CONTEXT((#279,#281,#282))
REPRESENTATION_CONTEXT('','3D')
);
#278=(
GEOMETRIC_REPRESENTATION_CONTEXT(3)
GLOBAL_UNCERTAINTY_ASSIGNED_CONTEXT((#276))
GLOBAL_UNIT_ASSIGNED_CONTEXT((#279,#281,#282))
REPRESENTATION_CONTEXT('','3D')
);
#279=(
LENGTH_UNIT()
NAMED_UNIT(*)
SI_UNIT(.MILLI.,.METRE.)
);
#280=(
LENGTH_UNIT()
NAMED_UNIT(*)
SI_UNIT(.CENTI.,.METRE.)
);
#281=(
NAMED_UNIT(*)
PLANE_ANGLE_UNIT()
SI_UNIT($,.RADIAN.)
);
#282=(
NAMED_UNIT(*)
SI_UNIT($,.STERADIAN.)
SOLID_ANGLE_UNIT()
);
#283=SHAPE_DEFINITION_REPRESENTATION(#284,#285);
#284=PRODUCT_DEFINITION_SHAPE('',$,#287);
#285=SHAPE_REPRESENTATION('',(#183),#277);
#286=PRODUCT_DEFINITION_CONTEXT('part definition',#291,'design');
#287=PRODUCT_DEFINITION('Entretoise','Entretoise',#288,#286);
#288=PRODUCT_DEFINITION_FORMATION('',$,#293);
#289=PRODUCT_RELATED_PRODUCT_CATEGORY('Entretoise','Entretoise',(#293));
#290=APPLICATION_PROTOCOL_DEFINITION('international standard',
'automotive_design',2009,#291);
#291=APPLICATION_CONTEXT(
'Core Data for Automotive Mechanical Design Process');
#292=PRODUCT_CONTEXT('part definition',#291,'mechanical');
#293=PRODUCT('Entretoise','Entretoise',$,(#292));
#294=SURFACE_STYLE_RENDERING_WITH_PROPERTIES($,#309,(#295));
#295=SURFACE_STYLE_TRANSPARENT(0.);
#296=PRESENTATION_STYLE_ASSIGNMENT((#298));
#297=PRESENTATION_STYLE_ASSIGNMENT((#299));
#298=SURFACE_STYLE_USAGE(.BOTH.,#300);
#299=SURFACE_STYLE_USAGE(.BOTH.,#301);
#300=SURFACE_SIDE_STYLE('',(#302));
#301=SURFACE_SIDE_STYLE('',(#303,#294));
#302=SURFACE_STYLE_FILL_AREA(#304);
#303=SURFACE_STYLE_FILL_AREA(#305);
#304=FILL_AREA_STYLE('',(#306));
#305=FILL_AREA_STYLE('',(#307));
#306=FILL_AREA_STYLE_COLOUR('',#308);
#307=FILL_AREA_STYLE_COLOUR('',#309);
#308=COLOUR_RGB('',0.301960784313725,0.305882352941176,0.290196078431373);
#309=COLOUR_RGB('',0.0941176470588235,0.145098039215686,0.972549019607843);
ENDSEC;
END-ISO-10303-21;
