ISO-10303-21;
HEADER;
/* Generated by software containing ST-Developer
 * from STEP Tools, Inc. (www.steptools.com) 
 */

FILE_DESCRIPTION(
/* description */ (''),
/* implementation_level */ '2;1');

FILE_NAME(
/* name */ 'Grande glissiere_.step',
/* time_stamp */ '2024-05-20T19:04:33+02:00',
/* author */ (''),
/* organization */ (''),
/* preprocessor_version */ 'ST-DEVELOPER v20',
/* originating_system */ 'Autodesk Translation Framework v12.20.1.177',

/* authorisation */ '');

FILE_SCHEMA (('AUTOMOTIVE_DESIGN { 1 0 10303 214 3 1 1 }'));
ENDSEC;

DATA;
#10=MECHANICAL_DESIGN_GEOMETRIC_PRESENTATION_REPRESENTATION('',(#13),#601);
#11=SHAPE_REPRESENTATION_RELATIONSHIP('SRR','None',#608,#12);
#12=ADVANCED_BREP_SHAPE_REPRESENTATION('',(#14),#600);
#13=STYLED_ITEM('',(#617),#14);
#14=MANIFOLD_SOLID_BREP('Grande glissiere',#346);
#15=CONICAL_SURFACE('',#375,2.65,0.226798848053888);
#16=CYLINDRICAL_SURFACE('',#363,6.);
#17=CYLINDRICAL_SURFACE('',#368,6.);
#18=CYLINDRICAL_SURFACE('',#372,2.5);
#19=CYLINDRICAL_SURFACE('',#374,2.5);
#20=CYLINDRICAL_SURFACE('',#378,2.5);
#21=CYLINDRICAL_SURFACE('',#381,3.5);
#22=CYLINDRICAL_SURFACE('',#385,3.5);
#23=CYLINDRICAL_SURFACE('',#388,2.5);
#24=CYLINDRICAL_SURFACE('',#391,2.5);
#25=FACE_BOUND('',#50,.T.);
#26=FACE_BOUND('',#53,.T.);
#27=FACE_BOUND('',#56,.T.);
#28=FACE_BOUND('',#62,.T.);
#29=FACE_BOUND('',#65,.T.);
#30=FACE_BOUND('',#72,.T.);
#31=FACE_OUTER_BOUND('',#49,.T.);
#32=FACE_OUTER_BOUND('',#51,.T.);
#33=FACE_OUTER_BOUND('',#52,.T.);
#34=FACE_OUTER_BOUND('',#54,.T.);
#35=FACE_OUTER_BOUND('',#55,.T.);
#36=FACE_OUTER_BOUND('',#57,.T.);
#37=FACE_OUTER_BOUND('',#58,.T.);
#38=FACE_OUTER_BOUND('',#59,.T.);
#39=FACE_OUTER_BOUND('',#60,.T.);
#40=FACE_OUTER_BOUND('',#61,.T.);
#41=FACE_OUTER_BOUND('',#63,.T.);
#42=FACE_OUTER_BOUND('',#64,.T.);
#43=FACE_OUTER_BOUND('',#66,.T.);
#44=FACE_OUTER_BOUND('',#67,.T.);
#45=FACE_OUTER_BOUND('',#68,.T.);
#46=FACE_OUTER_BOUND('',#69,.T.);
#47=FACE_OUTER_BOUND('',#70,.T.);
#48=FACE_OUTER_BOUND('',#71,.T.);
#49=EDGE_LOOP('',(#226,#227,#228,#229));
#50=EDGE_LOOP('',(#230));
#51=EDGE_LOOP('',(#231,#232,#233,#234));
#52=EDGE_LOOP('',(#235,#236,#237,#238));
#53=EDGE_LOOP('',(#239));
#54=EDGE_LOOP('',(#240,#241,#242,#243));
#55=EDGE_LOOP('',(#244,#245,#246,#247));
#56=EDGE_LOOP('',(#248));
#57=EDGE_LOOP('',(#249,#250,#251,#252));
#58=EDGE_LOOP('',(#253,#254,#255,#256));
#59=EDGE_LOOP('',(#257,#258,#259,#260));
#60=EDGE_LOOP('',(#261,#262,#263,#264));
#61=EDGE_LOOP('',(#265,#266,#267,#268));
#62=EDGE_LOOP('',(#269));
#63=EDGE_LOOP('',(#270,#271,#272,#273));
#64=EDGE_LOOP('',(#274,#275,#276,#277));
#65=EDGE_LOOP('',(#278));
#66=EDGE_LOOP('',(#279,#280,#281,#282));
#67=EDGE_LOOP('',(#283,#284,#285,#286));
#68=EDGE_LOOP('',(#287,#288,#289,#290));
#69=EDGE_LOOP('',(#291,#292,#293,#294,#295,#296,#297,#298,#299,#300,#301,
#302));
#70=EDGE_LOOP('',(#303,#304,#305,#306,#307,#308,#309,#310,#311,#312,#313,
#314));
#71=EDGE_LOOP('',(#315,#316,#317,#318));
#72=EDGE_LOOP('',(#319));
#73=LINE('',#507,#101);
#74=LINE('',#509,#102);
#75=LINE('',#510,#103);
#76=LINE('',#515,#104);
#77=LINE('',#518,#105);
#78=LINE('',#524,#106);
#79=LINE('',#526,#107);
#80=LINE('',#527,#108);
#81=LINE('',#534,#109);
#82=LINE('',#535,#110);
#83=LINE('',#538,#111);
#84=LINE('',#540,#112);
#85=LINE('',#541,#113);
#86=LINE('',#546,#114);
#87=LINE('',#549,#115);
#88=LINE('',#554,#116);
#89=LINE('',#559,#117);
#90=LINE('',#563,#118);
#91=LINE('',#565,#119);
#92=LINE('',#567,#120);
#93=LINE('',#568,#121);
#94=LINE('',#573,#122);
#95=LINE('',#577,#123);
#96=LINE('',#579,#124);
#97=LINE('',#580,#125);
#98=LINE('',#589,#126);
#99=LINE('',#594,#127);
#100=LINE('',#596,#128);
#101=VECTOR('',#403,10.);
#102=VECTOR('',#404,10.);
#103=VECTOR('',#405,10.);
#104=VECTOR('',#410,10.);
#105=VECTOR('',#413,10.);
#106=VECTOR('',#418,10.);
#107=VECTOR('',#419,10.);
#108=VECTOR('',#420,10.);
#109=VECTOR('',#427,10.);
#110=VECTOR('',#428,10.);
#111=VECTOR('',#431,10.);
#112=VECTOR('',#432,10.);
#113=VECTOR('',#433,10.);
#114=VECTOR('',#438,2.5);
#115=VECTOR('',#443,2.5);
#116=VECTOR('',#448,2.65);
#117=VECTOR('',#455,2.5);
#118=VECTOR('',#458,10.);
#119=VECTOR('',#459,10.);
#120=VECTOR('',#460,10.);
#121=VECTOR('',#461,10.);
#122=VECTOR('',#466,10.);
#123=VECTOR('',#471,10.);
#124=VECTOR('',#472,10.);
#125=VECTOR('',#473,10.);
#126=VECTOR('',#486,10.);
#127=VECTOR('',#495,10.);
#128=VECTOR('',#498,10.);
#129=CIRCLE('',#361,6.);
#130=CIRCLE('',#362,2.5);
#131=CIRCLE('',#364,6.);
#132=CIRCLE('',#366,6.);
#133=CIRCLE('',#367,2.5);
#134=CIRCLE('',#369,6.);
#135=CIRCLE('',#371,2.5);
#136=CIRCLE('',#373,2.5);
#137=CIRCLE('',#376,2.8);
#138=CIRCLE('',#377,2.5);
#139=CIRCLE('',#379,2.5);
#140=CIRCLE('',#382,3.5);
#141=CIRCLE('',#383,3.5);
#142=CIRCLE('',#386,3.5);
#143=CIRCLE('',#387,3.5);
#144=CIRCLE('',#389,2.5);
#145=CIRCLE('',#390,2.5);
#146=CIRCLE('',#392,2.5);
#147=CIRCLE('',#393,2.5);
#148=VERTEX_POINT('',#503);
#149=VERTEX_POINT('',#504);
#150=VERTEX_POINT('',#506);
#151=VERTEX_POINT('',#508);
#152=VERTEX_POINT('',#511);
#153=VERTEX_POINT('',#514);
#154=VERTEX_POINT('',#516);
#155=VERTEX_POINT('',#520);
#156=VERTEX_POINT('',#521);
#157=VERTEX_POINT('',#523);
#158=VERTEX_POINT('',#525);
#159=VERTEX_POINT('',#528);
#160=VERTEX_POINT('',#531);
#161=VERTEX_POINT('',#532);
#162=VERTEX_POINT('',#537);
#163=VERTEX_POINT('',#539);
#164=VERTEX_POINT('',#542);
#165=VERTEX_POINT('',#545);
#166=VERTEX_POINT('',#551);
#167=VERTEX_POINT('',#553);
#168=VERTEX_POINT('',#557);
#169=VERTEX_POINT('',#561);
#170=VERTEX_POINT('',#562);
#171=VERTEX_POINT('',#564);
#172=VERTEX_POINT('',#566);
#173=VERTEX_POINT('',#570);
#174=VERTEX_POINT('',#572);
#175=VERTEX_POINT('',#576);
#176=VERTEX_POINT('',#578);
#177=VERTEX_POINT('',#585);
#178=VERTEX_POINT('',#587);
#179=EDGE_CURVE('',#148,#149,#129,.T.);
#180=EDGE_CURVE('',#150,#148,#73,.T.);
#181=EDGE_CURVE('',#151,#150,#74,.T.);
#182=EDGE_CURVE('',#151,#149,#75,.T.);
#183=EDGE_CURVE('',#152,#152,#130,.T.);
#184=EDGE_CURVE('',#149,#153,#76,.T.);
#185=EDGE_CURVE('',#153,#154,#131,.T.);
#186=EDGE_CURVE('',#154,#148,#77,.T.);
#187=EDGE_CURVE('',#155,#156,#132,.T.);
#188=EDGE_CURVE('',#157,#155,#78,.T.);
#189=EDGE_CURVE('',#158,#157,#79,.T.);
#190=EDGE_CURVE('',#158,#156,#80,.T.);
#191=EDGE_CURVE('',#159,#159,#133,.T.);
#192=EDGE_CURVE('',#160,#161,#134,.T.);
#193=EDGE_CURVE('',#161,#155,#81,.T.);
#194=EDGE_CURVE('',#156,#160,#82,.T.);
#195=EDGE_CURVE('',#162,#160,#83,.T.);
#196=EDGE_CURVE('',#163,#162,#84,.T.);
#197=EDGE_CURVE('',#161,#163,#85,.T.);
#198=EDGE_CURVE('',#164,#164,#135,.T.);
#199=EDGE_CURVE('',#152,#165,#86,.T.);
#200=EDGE_CURVE('',#165,#165,#136,.T.);
#201=EDGE_CURVE('',#159,#164,#87,.T.);
#202=EDGE_CURVE('',#166,#166,#137,.T.);
#203=EDGE_CURVE('',#166,#167,#88,.T.);
#204=EDGE_CURVE('',#167,#167,#138,.T.);
#205=EDGE_CURVE('',#168,#168,#139,.T.);
#206=EDGE_CURVE('',#168,#167,#89,.T.);
#207=EDGE_CURVE('',#169,#170,#90,.T.);
#208=EDGE_CURVE('',#171,#169,#91,.T.);
#209=EDGE_CURVE('',#172,#171,#92,.T.);
#210=EDGE_CURVE('',#172,#170,#93,.F.);
#211=EDGE_CURVE('',#162,#173,#140,.F.);
#212=EDGE_CURVE('',#173,#174,#94,.T.);
#213=EDGE_CURVE('',#174,#163,#141,.F.);
#214=EDGE_CURVE('',#173,#175,#95,.F.);
#215=EDGE_CURVE('',#176,#175,#96,.T.);
#216=EDGE_CURVE('',#174,#176,#97,.T.);
#217=EDGE_CURVE('',#175,#151,#142,.F.);
#218=EDGE_CURVE('',#150,#176,#143,.F.);
#219=EDGE_CURVE('',#177,#169,#144,.F.);
#220=EDGE_CURVE('',#170,#178,#145,.F.);
#221=EDGE_CURVE('',#178,#177,#98,.T.);
#222=EDGE_CURVE('',#157,#172,#146,.F.);
#223=EDGE_CURVE('',#171,#158,#147,.F.);
#224=EDGE_CURVE('',#153,#177,#99,.F.);
#225=EDGE_CURVE('',#178,#154,#100,.T.);
#226=ORIENTED_EDGE('',*,*,#179,.F.);
#227=ORIENTED_EDGE('',*,*,#180,.F.);
#228=ORIENTED_EDGE('',*,*,#181,.F.);
#229=ORIENTED_EDGE('',*,*,#182,.T.);
#230=ORIENTED_EDGE('',*,*,#183,.T.);
#231=ORIENTED_EDGE('',*,*,#179,.T.);
#232=ORIENTED_EDGE('',*,*,#184,.T.);
#233=ORIENTED_EDGE('',*,*,#185,.T.);
#234=ORIENTED_EDGE('',*,*,#186,.T.);
#235=ORIENTED_EDGE('',*,*,#187,.F.);
#236=ORIENTED_EDGE('',*,*,#188,.F.);
#237=ORIENTED_EDGE('',*,*,#189,.F.);
#238=ORIENTED_EDGE('',*,*,#190,.T.);
#239=ORIENTED_EDGE('',*,*,#191,.T.);
#240=ORIENTED_EDGE('',*,*,#192,.T.);
#241=ORIENTED_EDGE('',*,*,#193,.T.);
#242=ORIENTED_EDGE('',*,*,#187,.T.);
#243=ORIENTED_EDGE('',*,*,#194,.T.);
#244=ORIENTED_EDGE('',*,*,#192,.F.);
#245=ORIENTED_EDGE('',*,*,#195,.F.);
#246=ORIENTED_EDGE('',*,*,#196,.F.);
#247=ORIENTED_EDGE('',*,*,#197,.F.);
#248=ORIENTED_EDGE('',*,*,#198,.T.);
#249=ORIENTED_EDGE('',*,*,#183,.F.);
#250=ORIENTED_EDGE('',*,*,#199,.T.);
#251=ORIENTED_EDGE('',*,*,#200,.F.);
#252=ORIENTED_EDGE('',*,*,#199,.F.);
#253=ORIENTED_EDGE('',*,*,#191,.F.);
#254=ORIENTED_EDGE('',*,*,#201,.T.);
#255=ORIENTED_EDGE('',*,*,#198,.F.);
#256=ORIENTED_EDGE('',*,*,#201,.F.);
#257=ORIENTED_EDGE('',*,*,#202,.T.);
#258=ORIENTED_EDGE('',*,*,#203,.T.);
#259=ORIENTED_EDGE('',*,*,#204,.T.);
#260=ORIENTED_EDGE('',*,*,#203,.F.);
#261=ORIENTED_EDGE('',*,*,#205,.F.);
#262=ORIENTED_EDGE('',*,*,#206,.T.);
#263=ORIENTED_EDGE('',*,*,#204,.F.);
#264=ORIENTED_EDGE('',*,*,#206,.F.);
#265=ORIENTED_EDGE('',*,*,#207,.F.);
#266=ORIENTED_EDGE('',*,*,#208,.F.);
#267=ORIENTED_EDGE('',*,*,#209,.F.);
#268=ORIENTED_EDGE('',*,*,#210,.T.);
#269=ORIENTED_EDGE('',*,*,#202,.F.);
#270=ORIENTED_EDGE('',*,*,#211,.T.);
#271=ORIENTED_EDGE('',*,*,#212,.T.);
#272=ORIENTED_EDGE('',*,*,#213,.T.);
#273=ORIENTED_EDGE('',*,*,#196,.T.);
#274=ORIENTED_EDGE('',*,*,#212,.F.);
#275=ORIENTED_EDGE('',*,*,#214,.T.);
#276=ORIENTED_EDGE('',*,*,#215,.F.);
#277=ORIENTED_EDGE('',*,*,#216,.F.);
#278=ORIENTED_EDGE('',*,*,#205,.T.);
#279=ORIENTED_EDGE('',*,*,#217,.T.);
#280=ORIENTED_EDGE('',*,*,#181,.T.);
#281=ORIENTED_EDGE('',*,*,#218,.T.);
#282=ORIENTED_EDGE('',*,*,#215,.T.);
#283=ORIENTED_EDGE('',*,*,#219,.T.);
#284=ORIENTED_EDGE('',*,*,#207,.T.);
#285=ORIENTED_EDGE('',*,*,#220,.T.);
#286=ORIENTED_EDGE('',*,*,#221,.T.);
#287=ORIENTED_EDGE('',*,*,#222,.T.);
#288=ORIENTED_EDGE('',*,*,#209,.T.);
#289=ORIENTED_EDGE('',*,*,#223,.T.);
#290=ORIENTED_EDGE('',*,*,#189,.T.);
#291=ORIENTED_EDGE('',*,*,#184,.F.);
#292=ORIENTED_EDGE('',*,*,#182,.F.);
#293=ORIENTED_EDGE('',*,*,#217,.F.);
#294=ORIENTED_EDGE('',*,*,#214,.F.);
#295=ORIENTED_EDGE('',*,*,#211,.F.);
#296=ORIENTED_EDGE('',*,*,#195,.T.);
#297=ORIENTED_EDGE('',*,*,#194,.F.);
#298=ORIENTED_EDGE('',*,*,#190,.F.);
#299=ORIENTED_EDGE('',*,*,#223,.F.);
#300=ORIENTED_EDGE('',*,*,#208,.T.);
#301=ORIENTED_EDGE('',*,*,#219,.F.);
#302=ORIENTED_EDGE('',*,*,#224,.F.);
#303=ORIENTED_EDGE('',*,*,#186,.F.);
#304=ORIENTED_EDGE('',*,*,#225,.F.);
#305=ORIENTED_EDGE('',*,*,#220,.F.);
#306=ORIENTED_EDGE('',*,*,#210,.F.);
#307=ORIENTED_EDGE('',*,*,#222,.F.);
#308=ORIENTED_EDGE('',*,*,#188,.T.);
#309=ORIENTED_EDGE('',*,*,#193,.F.);
#310=ORIENTED_EDGE('',*,*,#197,.T.);
#311=ORIENTED_EDGE('',*,*,#213,.F.);
#312=ORIENTED_EDGE('',*,*,#216,.T.);
#313=ORIENTED_EDGE('',*,*,#218,.F.);
#314=ORIENTED_EDGE('',*,*,#180,.T.);
#315=ORIENTED_EDGE('',*,*,#185,.F.);
#316=ORIENTED_EDGE('',*,*,#224,.T.);
#317=ORIENTED_EDGE('',*,*,#221,.F.);
#318=ORIENTED_EDGE('',*,*,#225,.T.);
#319=ORIENTED_EDGE('',*,*,#200,.T.);
#320=PLANE('',#360);
#321=PLANE('',#365);
#322=PLANE('',#370);
#323=PLANE('',#380);
#324=PLANE('',#384);
#325=PLANE('',#394);
#326=PLANE('',#395);
#327=PLANE('',#396);
#328=ADVANCED_FACE('',(#31,#25),#320,.T.);
#329=ADVANCED_FACE('',(#32),#16,.T.);
#330=ADVANCED_FACE('',(#33,#26),#321,.F.);
#331=ADVANCED_FACE('',(#34),#17,.T.);
#332=ADVANCED_FACE('',(#35,#27),#322,.T.);
#333=ADVANCED_FACE('',(#36),#18,.F.);
#334=ADVANCED_FACE('',(#37),#19,.F.);
#335=ADVANCED_FACE('',(#38),#15,.F.);
#336=ADVANCED_FACE('',(#39),#20,.F.);
#337=ADVANCED_FACE('',(#40,#28),#323,.T.);
#338=ADVANCED_FACE('',(#41),#21,.T.);
#339=ADVANCED_FACE('',(#42,#29),#324,.T.);
#340=ADVANCED_FACE('',(#43),#22,.T.);
#341=ADVANCED_FACE('',(#44),#23,.F.);
#342=ADVANCED_FACE('',(#45),#24,.F.);
#343=ADVANCED_FACE('',(#46),#325,.T.);
#344=ADVANCED_FACE('',(#47),#326,.T.);
#345=ADVANCED_FACE('',(#48,#30),#327,.T.);
#346=CLOSED_SHELL('',(#328,#329,#330,#331,#332,#333,#334,#335,#336,#337,
#338,#339,#340,#341,#342,#343,#344,#345));
#347=DERIVED_UNIT_ELEMENT(#349,1.);
#348=DERIVED_UNIT_ELEMENT(#603,-3.);
#349=(
MASS_UNIT()
NAMED_UNIT(*)
SI_UNIT(.KILO.,.GRAM.)
);
#350=DERIVED_UNIT((#347,#348));
#351=MEASURE_REPRESENTATION_ITEM('density measure',
POSITIVE_RATIO_MEASURE(7850.),#350);
#352=PROPERTY_DEFINITION_REPRESENTATION(#357,#354);
#353=PROPERTY_DEFINITION_REPRESENTATION(#358,#355);
#354=REPRESENTATION('material name',(#356),#600);
#355=REPRESENTATION('density',(#351),#600);
#356=DESCRIPTIVE_REPRESENTATION_ITEM('Acier','Acier');
#357=PROPERTY_DEFINITION('material property','material name',#610);
#358=PROPERTY_DEFINITION('material property','density of part',#610);
#359=AXIS2_PLACEMENT_3D('',#501,#397,#398);
#360=AXIS2_PLACEMENT_3D('',#502,#399,#400);
#361=AXIS2_PLACEMENT_3D('',#505,#401,#402);
#362=AXIS2_PLACEMENT_3D('',#512,#406,#407);
#363=AXIS2_PLACEMENT_3D('',#513,#408,#409);
#364=AXIS2_PLACEMENT_3D('',#517,#411,#412);
#365=AXIS2_PLACEMENT_3D('',#519,#414,#415);
#366=AXIS2_PLACEMENT_3D('',#522,#416,#417);
#367=AXIS2_PLACEMENT_3D('',#529,#421,#422);
#368=AXIS2_PLACEMENT_3D('',#530,#423,#424);
#369=AXIS2_PLACEMENT_3D('',#533,#425,#426);
#370=AXIS2_PLACEMENT_3D('',#536,#429,#430);
#371=AXIS2_PLACEMENT_3D('',#543,#434,#435);
#372=AXIS2_PLACEMENT_3D('',#544,#436,#437);
#373=AXIS2_PLACEMENT_3D('',#547,#439,#440);
#374=AXIS2_PLACEMENT_3D('',#548,#441,#442);
#375=AXIS2_PLACEMENT_3D('',#550,#444,#445);
#376=AXIS2_PLACEMENT_3D('',#552,#446,#447);
#377=AXIS2_PLACEMENT_3D('',#555,#449,#450);
#378=AXIS2_PLACEMENT_3D('',#556,#451,#452);
#379=AXIS2_PLACEMENT_3D('',#558,#453,#454);
#380=AXIS2_PLACEMENT_3D('',#560,#456,#457);
#381=AXIS2_PLACEMENT_3D('',#569,#462,#463);
#382=AXIS2_PLACEMENT_3D('',#571,#464,#465);
#383=AXIS2_PLACEMENT_3D('',#574,#467,#468);
#384=AXIS2_PLACEMENT_3D('',#575,#469,#470);
#385=AXIS2_PLACEMENT_3D('',#581,#474,#475);
#386=AXIS2_PLACEMENT_3D('',#582,#476,#477);
#387=AXIS2_PLACEMENT_3D('',#583,#478,#479);
#388=AXIS2_PLACEMENT_3D('',#584,#480,#481);
#389=AXIS2_PLACEMENT_3D('',#586,#482,#483);
#390=AXIS2_PLACEMENT_3D('',#588,#484,#485);
#391=AXIS2_PLACEMENT_3D('',#590,#487,#488);
#392=AXIS2_PLACEMENT_3D('',#591,#489,#490);
#393=AXIS2_PLACEMENT_3D('',#592,#491,#492);
#394=AXIS2_PLACEMENT_3D('',#593,#493,#494);
#395=AXIS2_PLACEMENT_3D('',#595,#496,#497);
#396=AXIS2_PLACEMENT_3D('',#597,#499,#500);
#397=DIRECTION('axis',(0.,0.,1.));
#398=DIRECTION('refdir',(1.,0.,0.));
#399=DIRECTION('center_axis',(-1.,0.,0.));
#400=DIRECTION('ref_axis',(0.,2.2204460492503E-15,-1.));
#401=DIRECTION('center_axis',(1.,0.,0.));
#402=DIRECTION('ref_axis',(0.,-0.707106781186541,-0.707106781186554));
#403=DIRECTION('',(0.,-1.,-3.94745964311167E-15));
#404=DIRECTION('',(0.,0.,1.));
#405=DIRECTION('',(0.,-1.,-3.94745964311167E-15));
#406=DIRECTION('center_axis',(1.,0.,0.));
#407=DIRECTION('ref_axis',(0.,0.,1.));
#408=DIRECTION('center_axis',(-1.,0.,0.));
#409=DIRECTION('ref_axis',(0.,-0.707106781186552,0.707106781186543));
#410=DIRECTION('',(1.,0.,0.));
#411=DIRECTION('center_axis',(-1.,0.,0.));
#412=DIRECTION('ref_axis',(0.,-0.707106781186552,0.707106781186543));
#413=DIRECTION('',(-1.,0.,0.));
#414=DIRECTION('center_axis',(1.,0.,0.));
#415=DIRECTION('ref_axis',(0.,0.,-1.));
#416=DIRECTION('center_axis',(1.,0.,0.));
#417=DIRECTION('ref_axis',(0.,-0.707106781186541,-0.707106781186554));
#418=DIRECTION('',(0.,-1.,-3.94745964311167E-15));
#419=DIRECTION('',(0.,0.,1.));
#420=DIRECTION('',(0.,-1.,0.));
#421=DIRECTION('center_axis',(1.,0.,0.));
#422=DIRECTION('ref_axis',(0.,0.,1.));
#423=DIRECTION('center_axis',(-1.,0.,0.));
#424=DIRECTION('ref_axis',(0.,-0.707106781186553,0.707106781186543));
#425=DIRECTION('center_axis',(-1.,0.,0.));
#426=DIRECTION('ref_axis',(0.,-0.707106781186553,0.707106781186543));
#427=DIRECTION('',(-1.,0.,0.));
#428=DIRECTION('',(1.,0.,0.));
#429=DIRECTION('center_axis',(1.,0.,0.));
#430=DIRECTION('ref_axis',(0.,0.,-1.));
#431=DIRECTION('',(0.,-1.,-3.94745964311167E-15));
#432=DIRECTION('',(0.,0.,-1.));
#433=DIRECTION('',(0.,1.,0.));
#434=DIRECTION('center_axis',(-1.,0.,0.));
#435=DIRECTION('ref_axis',(0.,0.,1.));
#436=DIRECTION('center_axis',(1.,0.,0.));
#437=DIRECTION('ref_axis',(0.,0.,1.));
#438=DIRECTION('',(1.,0.,0.));
#439=DIRECTION('center_axis',(-1.,0.,0.));
#440=DIRECTION('ref_axis',(0.,0.,1.));
#441=DIRECTION('center_axis',(1.,0.,0.));
#442=DIRECTION('ref_axis',(0.,0.,1.));
#443=DIRECTION('',(1.,0.,0.));
#444=DIRECTION('center_axis',(0.,-1.,0.));
#445=DIRECTION('ref_axis',(1.,0.,0.));
#446=DIRECTION('center_axis',(0.,-1.,0.));
#447=DIRECTION('ref_axis',(1.,0.,0.));
#448=DIRECTION('',(0.22485950669876,0.97439119569462,2.7537347513649E-17));
#449=DIRECTION('center_axis',(0.,1.,0.));
#450=DIRECTION('ref_axis',(1.,0.,0.));
#451=DIRECTION('center_axis',(0.,-1.,0.));
#452=DIRECTION('ref_axis',(1.,0.,0.));
#453=DIRECTION('center_axis',(0.,-1.,0.));
#454=DIRECTION('ref_axis',(1.,0.,0.));
#455=DIRECTION('',(0.,-1.,0.));
#456=DIRECTION('center_axis',(0.,-1.,0.));
#457=DIRECTION('ref_axis',(0.,0.,1.));
#458=DIRECTION('',(0.,0.,1.));
#459=DIRECTION('',(-1.,0.,0.));
#460=DIRECTION('',(0.,0.,-1.));
#461=DIRECTION('',(1.,0.,0.));
#462=DIRECTION('center_axis',(0.,0.,-1.));
#463=DIRECTION('ref_axis',(0.707106781186547,0.707106781186548,0.));
#464=DIRECTION('center_axis',(0.,0.,-1.));
#465=DIRECTION('ref_axis',(0.707106781186547,0.707106781186548,0.));
#466=DIRECTION('',(0.,0.,1.));
#467=DIRECTION('center_axis',(0.,0.,1.));
#468=DIRECTION('ref_axis',(0.707106781186547,0.707106781186548,0.));
#469=DIRECTION('center_axis',(0.,1.,0.));
#470=DIRECTION('ref_axis',(0.,0.,-1.));
#471=DIRECTION('',(1.,0.,0.));
#472=DIRECTION('',(0.,0.,-1.));
#473=DIRECTION('',(-1.,0.,0.));
#474=DIRECTION('center_axis',(0.,0.,-1.));
#475=DIRECTION('ref_axis',(-0.707106781186547,0.707106781186548,0.));
#476=DIRECTION('center_axis',(0.,0.,-1.));
#477=DIRECTION('ref_axis',(-0.707106781186547,0.707106781186548,0.));
#478=DIRECTION('center_axis',(0.,0.,1.));
#479=DIRECTION('ref_axis',(-0.707106781186547,0.707106781186548,0.));
#480=DIRECTION('center_axis',(0.,0.,1.));
#481=DIRECTION('ref_axis',(-0.707106781186548,0.707106781186547,0.));
#482=DIRECTION('center_axis',(0.,0.,1.));
#483=DIRECTION('ref_axis',(-0.707106781186548,0.707106781186547,0.));
#484=DIRECTION('center_axis',(0.,0.,-1.));
#485=DIRECTION('ref_axis',(-0.707106781186548,0.707106781186547,0.));
#486=DIRECTION('',(0.,0.,-1.));
#487=DIRECTION('center_axis',(0.,0.,-1.));
#488=DIRECTION('ref_axis',(0.707106781186547,0.707106781186547,0.));
#489=DIRECTION('center_axis',(0.,0.,-1.));
#490=DIRECTION('ref_axis',(0.707106781186547,0.707106781186547,0.));
#491=DIRECTION('center_axis',(0.,0.,1.));
#492=DIRECTION('ref_axis',(0.707106781186547,0.707106781186547,0.));
#493=DIRECTION('center_axis',(0.,3.94745964311167E-15,-1.));
#494=DIRECTION('ref_axis',(1.,0.,0.));
#495=DIRECTION('',(0.,-1.,0.));
#496=DIRECTION('center_axis',(0.,-3.94745964311167E-15,1.));
#497=DIRECTION('ref_axis',(-1.,0.,0.));
#498=DIRECTION('',(0.,-1.,-3.94745964311167E-15));
#499=DIRECTION('center_axis',(1.,0.,0.));
#500=DIRECTION('ref_axis',(0.,-2.2204460492503E-15,1.));
#501=CARTESIAN_POINT('',(0.,0.,0.));
#502=CARTESIAN_POINT('Origin',(-0.70000000000002,-11.0000001639142,95.5315509367643));
#503=CARTESIAN_POINT('',(-0.70000000000002,-14.0000001639143,95.5315509367643));
#504=CARTESIAN_POINT('',(-0.70000000000002,-14.0000001639142,83.5315509367643));
#505=CARTESIAN_POINT('Origin',(-0.70000000000002,-14.0000001639142,89.5315509367643));
#506=CARTESIAN_POINT('',(-0.700000000000021,6.16044458019996,95.5315509367643));
#507=CARTESIAN_POINT('',(-0.70000000000002,-11.0000001639142,95.5315509367643));
#508=CARTESIAN_POINT('',(-0.700000000000021,6.16044458019996,83.5315509367643));
#509=CARTESIAN_POINT('',(-0.700000000000021,6.16044458019996,89.7815509367643));
#510=CARTESIAN_POINT('',(-0.70000000000002,-11.0000001639142,83.5315509367643));
#511=CARTESIAN_POINT('',(-0.70000000000002,-13.5708888623811,86.8873031304951));
#512=CARTESIAN_POINT('Origin',(-0.70000000000002,-13.5708888623811,89.3873031304951));
#513=CARTESIAN_POINT('Origin',(0.29999999999998,-14.0000001639142,89.5315509367643));
#514=CARTESIAN_POINT('',(1.29999999999998,-14.0000001639142,83.5315509367643));
#515=CARTESIAN_POINT('',(-0.70000000000002,-14.0000001639142,83.5315509367643));
#516=CARTESIAN_POINT('',(1.29999999999998,-14.0000001639143,95.5315509367643));
#517=CARTESIAN_POINT('Origin',(1.29999999999998,-14.0000001639142,89.5315509367643));
#518=CARTESIAN_POINT('',(0.29999999999998,-14.0000001639143,95.5315509367643));
#519=CARTESIAN_POINT('Origin',(77.7,-4.65000000000145,85.5315509367643));
#520=CARTESIAN_POINT('',(77.7,-14.0000001639142,95.5315509367643));
#521=CARTESIAN_POINT('',(77.7,-14.0000001639142,83.5315509367643));
#522=CARTESIAN_POINT('Origin',(77.7,-14.0000001639142,89.5315509367643));
#523=CARTESIAN_POINT('',(77.7,5.16090707108412,95.5315509367643));
#524=CARTESIAN_POINT('',(77.7,-11.0000001639142,95.5315509367643));
#525=CARTESIAN_POINT('',(77.7,5.16090707108412,83.5315509367643));
#526=CARTESIAN_POINT('',(77.7,5.16090707108412,85.2815509367643));
#527=CARTESIAN_POINT('',(77.7,2.50522229009926,83.5315509367643));
#528=CARTESIAN_POINT('',(77.7,-13.5708888623811,86.8873031304951));
#529=CARTESIAN_POINT('Origin',(77.7,-13.5708888623811,89.3873031304951));
#530=CARTESIAN_POINT('Origin',(0.29999999999998,-14.0000001639142,89.5315509367643));
#531=CARTESIAN_POINT('',(79.7,-14.0000001639142,83.5315509367643));
#532=CARTESIAN_POINT('',(79.7,-14.0000001639142,95.5315509367643));
#533=CARTESIAN_POINT('Origin',(79.7,-14.0000001639142,89.5315509367643));
#534=CARTESIAN_POINT('',(0.29999999999998,-14.0000001639142,95.5315509367643));
#535=CARTESIAN_POINT('',(-0.70000000000002,-14.0000001639142,83.5315509367643));
#536=CARTESIAN_POINT('Origin',(79.7,-4.65000000000145,85.5315509367643));
#537=CARTESIAN_POINT('',(79.7,6.16044458019996,83.5315509367643));
#538=CARTESIAN_POINT('',(79.7,-11.0000001639142,83.5315509367643));
#539=CARTESIAN_POINT('',(79.7,6.16044458019996,95.5315509367643));
#540=CARTESIAN_POINT('',(79.7,6.16044458019996,89.7815509367643));
#541=CARTESIAN_POINT('',(79.7,-5.57500000000145,95.5315509367643));
#542=CARTESIAN_POINT('',(79.7,-13.5708888623811,86.8873031304951));
#543=CARTESIAN_POINT('Origin',(79.7,-13.5708888623811,89.3873031304951));
#544=CARTESIAN_POINT('Origin',(-3.,-13.5708888623811,89.3873031304951));
#545=CARTESIAN_POINT('',(1.29999999999998,-13.5708888623811,86.8873031304951));
#546=CARTESIAN_POINT('',(-3.,-13.5708888623811,86.8873031304951));
#547=CARTESIAN_POINT('Origin',(1.29999999999998,-13.5708888623811,89.3873031304951));
#548=CARTESIAN_POINT('Origin',(-3.,-13.5708888623811,89.3873031304951));
#549=CARTESIAN_POINT('',(-3.,-13.5708888623811,86.8873031304951));
#550=CARTESIAN_POINT('Origin',(39.688752999453,8.31090707108411,89.5323331165654));
#551=CARTESIAN_POINT('',(36.888752999453,7.66090707108412,89.5323331165654));
#552=CARTESIAN_POINT('Origin',(39.688752999453,7.66090707108412,89.5323331165654));
#553=CARTESIAN_POINT('',(37.188752999453,8.96090707108412,89.5323331165654));
#554=CARTESIAN_POINT('',(37.038752999453,8.31090707108411,89.5323331165654));
#555=CARTESIAN_POINT('Origin',(39.688752999453,8.96090707108412,89.5323331165654));
#556=CARTESIAN_POINT('Origin',(39.688752999453,9.99999999999855,89.5323331165654));
#557=CARTESIAN_POINT('',(37.188752999453,9.66044458019996,89.5323331165654));
#558=CARTESIAN_POINT('Origin',(39.688752999453,9.66044458019996,89.5323331165654));
#559=CARTESIAN_POINT('',(37.188752999453,9.99999999999855,89.5323331165654));
#560=CARTESIAN_POINT('Origin',(79.7,7.66090707108412,85.0315509367643));
#561=CARTESIAN_POINT('',(3.79999999999999,7.66090707108412,83.5315509367643));
#562=CARTESIAN_POINT('',(3.79999999999999,7.66090707108412,95.5315509367643));
#563=CARTESIAN_POINT('',(3.79999999999999,7.66090707108412,85.2815509367643));
#564=CARTESIAN_POINT('',(75.2,7.66090707108412,83.5315509367643));
#565=CARTESIAN_POINT('',(79.7,7.66090707108412,83.5315509367642));
#566=CARTESIAN_POINT('',(75.2,7.66090707108412,95.5315509367643));
#567=CARTESIAN_POINT('',(75.2,7.66090707108412,85.2815509367643));
#568=CARTESIAN_POINT('',(79.7,7.66090707108412,95.5315509367643));
#569=CARTESIAN_POINT('Origin',(76.2,6.16044458019996,89.7815509367643));
#570=CARTESIAN_POINT('',(76.2,9.66044458019996,83.5315509367643));
#571=CARTESIAN_POINT('Origin',(76.2,6.16044458019996,83.5315509367643));
#572=CARTESIAN_POINT('',(76.2,9.66044458019996,95.5315509367643));
#573=CARTESIAN_POINT('',(76.2,9.66044458019996,89.7815509367643));
#574=CARTESIAN_POINT('Origin',(76.2,6.16044458019996,95.5315509367643));
#575=CARTESIAN_POINT('Origin',(79.7,9.66044458019996,94.0315509367643));
#576=CARTESIAN_POINT('',(2.79999999999998,9.66044458019996,83.5315509367643));
#577=CARTESIAN_POINT('',(79.7,9.66044458019996,83.5315509367643));
#578=CARTESIAN_POINT('',(2.79999999999998,9.66044458019996,95.5315509367643));
#579=CARTESIAN_POINT('',(2.79999999999998,9.66044458019996,89.7815509367643));
#580=CARTESIAN_POINT('',(79.7,9.66044458019996,95.5315509367643));
#581=CARTESIAN_POINT('Origin',(2.79999999999998,6.16044458019996,89.7815509367643));
#582=CARTESIAN_POINT('Origin',(2.79999999999998,6.16044458019996,83.5315509367643));
#583=CARTESIAN_POINT('Origin',(2.79999999999998,6.16044458019996,95.5315509367643));
#584=CARTESIAN_POINT('Origin',(3.79999999999999,5.16090707108412,85.2815509367643));
#585=CARTESIAN_POINT('',(1.29999999999998,5.16090707108412,83.5315509367643));
#586=CARTESIAN_POINT('Origin',(3.79999999999999,5.16090707108412,83.5315509367643));
#587=CARTESIAN_POINT('',(1.29999999999998,5.16090707108412,95.5315509367643));
#588=CARTESIAN_POINT('Origin',(3.79999999999999,5.16090707108412,95.5315509367643));
#589=CARTESIAN_POINT('',(1.29999999999998,5.16090707108412,85.2815509367643));
#590=CARTESIAN_POINT('Origin',(75.2,5.16090707108412,85.2815509367643));
#591=CARTESIAN_POINT('Origin',(75.2,5.16090707108412,95.5315509367643));
#592=CARTESIAN_POINT('Origin',(75.2,5.16090707108412,83.5315509367643));
#593=CARTESIAN_POINT('Origin',(-0.70000000000002,-11.0000001639142,83.5315509367643));
#594=CARTESIAN_POINT('',(1.29999999999998,2.50522229009926,83.5315509367643));
#595=CARTESIAN_POINT('Origin',(1.29999999999998,-11.0000001639142,95.5315509367643));
#596=CARTESIAN_POINT('',(1.29999999999998,-11.0000001639142,95.5315509367643));
#597=CARTESIAN_POINT('Origin',(1.29999999999998,-11.0000001639142,83.5315509367643));
#598=UNCERTAINTY_MEASURE_WITH_UNIT(LENGTH_MEASURE(0.01),#602,
'DISTANCE_ACCURACY_VALUE',
'Maximum model space distance between geometric entities at asserted c
onnectivities');
#599=UNCERTAINTY_MEASURE_WITH_UNIT(LENGTH_MEASURE(0.01),#602,
'DISTANCE_ACCURACY_VALUE',
'Maximum model space distance between geometric entities at asserted c
onnectivities');
#600=(
GEOMETRIC_REPRESENTATION_CONTEXT(3)
GLOBAL_UNCERTAINTY_ASSIGNED_CONTEXT((#598))
GLOBAL_UNIT_ASSIGNED_CONTEXT((#602,#604,#605))
REPRESENTATION_CONTEXT('','3D')
);
#601=(
GEOMETRIC_REPRESENTATION_CONTEXT(3)
GLOBAL_UNCERTAINTY_ASSIGNED_CONTEXT((#599))
GLOBAL_UNIT_ASSIGNED_CONTEXT((#602,#604,#605))
REPRESENTATION_CONTEXT('','3D')
);
#602=(
LENGTH_UNIT()
NAMED_UNIT(*)
SI_UNIT(.MILLI.,.METRE.)
);
#603=(
LENGTH_UNIT()
NAMED_UNIT(*)
SI_UNIT($,.METRE.)
);
#604=(
NAMED_UNIT(*)
PLANE_ANGLE_UNIT()
SI_UNIT($,.RADIAN.)
);
#605=(
NAMED_UNIT(*)
SI_UNIT($,.STERADIAN.)
SOLID_ANGLE_UNIT()
);
#606=SHAPE_DEFINITION_REPRESENTATION(#607,#608);
#607=PRODUCT_DEFINITION_SHAPE('',$,#610);
#608=SHAPE_REPRESENTATION('',(#359),#600);
#609=PRODUCT_DEFINITION_CONTEXT('part definition',#614,'design');
#610=PRODUCT_DEFINITION('Sans nom','Sans nom v12',#611,#609);
#611=PRODUCT_DEFINITION_FORMATION('',$,#616);
#612=PRODUCT_RELATED_PRODUCT_CATEGORY('Sans nom v12','Sans nom v12',(#616));
#613=APPLICATION_PROTOCOL_DEFINITION('international standard',
'automotive_design',2009,#614);
#614=APPLICATION_CONTEXT(
'Core Data for Automotive Mechanical Design Process');
#615=PRODUCT_CONTEXT('part definition',#614,'mechanical');
#616=PRODUCT('Sans nom','Sans nom v12',$,(#615));
#617=PRESENTATION_STYLE_ASSIGNMENT((#618));
#618=SURFACE_STYLE_USAGE(.BOTH.,#619);
#619=SURFACE_SIDE_STYLE('',(#620));
#620=SURFACE_STYLE_FILL_AREA(#621);
#621=FILL_AREA_STYLE('Acier - Satin\X\E9',(#622));
#622=FILL_AREA_STYLE_COLOUR('Acier - Satin\X\E9',#623);
#623=COLOUR_RGB('Acier - Satin\X\E9',0.627450980392157,0.627450980392157,
0.627450980392157);
ENDSEC;
END-ISO-10303-21;
