ISO-10303-21;
HEADER;
FILE_DESCRIPTION((''),'2;1');
FILE_NAME('AS000002','2024-07-26T15:19:18',('cgode'),(''),
'CREO PARAMETRIC BY PTC INC, 2022244','CREO PARAMETRIC BY PTC INC, 2022244','');
FILE_SCHEMA(('CONFIG_CONTROL_DESIGN'));
ENDSEC;
DATA;
#1=CARTESIAN_POINT('',(0.E0,0.E0,-3.6E1));
#2=DIRECTION('',(0.E0,0.E0,1.E0));
#3=DIRECTION('',(-1.E0,0.E0,0.E0));
#4=AXIS2_PLACEMENT_3D('',#1,#2,#3);
#6=CARTESIAN_POINT('',(0.E0,0.E0,-3.6E1));
#7=DIRECTION('',(0.E0,0.E0,1.E0));
#8=DIRECTION('',(1.E0,0.E0,0.E0));
#9=AXIS2_PLACEMENT_3D('',#6,#7,#8);
#11=CARTESIAN_POINT('',(0.E0,0.E0,-3.6E1));
#12=DIRECTION('',(0.E0,0.E0,1.E0));
#13=DIRECTION('',(1.E0,0.E0,0.E0));
#14=AXIS2_PLACEMENT_3D('',#11,#12,#13);
#16=CARTESIAN_POINT('',(0.E0,0.E0,-3.6E1));
#17=DIRECTION('',(0.E0,0.E0,1.E0));
#18=DIRECTION('',(-1.E0,0.E0,0.E0));
#19=AXIS2_PLACEMENT_3D('',#16,#17,#18);
#21=CARTESIAN_POINT('',(-2.8E1,1.121255865932E-13,-3.4E1));
#22=DIRECTION('',(0.E0,-1.E0,0.E0));
#23=DIRECTION('',(-1.E0,0.E0,0.E0));
#24=AXIS2_PLACEMENT_3D('',#21,#22,#23);
#26=CARTESIAN_POINT('',(0.E0,0.E0,-3.2E1));
#27=DIRECTION('',(0.E0,0.E0,1.E0));
#28=DIRECTION('',(-1.E0,0.E0,0.E0));
#29=AXIS2_PLACEMENT_3D('',#26,#27,#28);
#31=CARTESIAN_POINT('',(0.E0,0.E0,-3.4E1));
#32=DIRECTION('',(0.E0,0.E0,1.E0));
#33=DIRECTION('',(-1.E0,0.E0,0.E0));
#34=AXIS2_PLACEMENT_3D('',#31,#32,#33);
#36=CARTESIAN_POINT('',(-2.8E1,1.080940892351E-13,-3.2E1));
#37=DIRECTION('',(0.E0,-1.E0,0.E0));
#38=DIRECTION('',(0.E0,0.E0,1.E0));
#39=AXIS2_PLACEMENT_3D('',#36,#37,#38);
#41=CARTESIAN_POINT('',(0.E0,0.E0,-3.E1));
#42=DIRECTION('',(0.E0,0.E0,1.E0));
#43=DIRECTION('',(-1.E0,0.E0,0.E0));
#44=AXIS2_PLACEMENT_3D('',#41,#42,#43);
#46=CARTESIAN_POINT('',(0.E0,0.E0,-3.E1));
#47=DIRECTION('',(0.E0,0.E0,1.E0));
#48=DIRECTION('',(1.E0,0.E0,0.E0));
#49=AXIS2_PLACEMENT_3D('',#46,#47,#48);
#51=CARTESIAN_POINT('',(0.E0,0.E0,-3.E1));
#52=DIRECTION('',(0.E0,0.E0,-1.E0));
#53=DIRECTION('',(1.E0,0.E0,0.E0));
#54=AXIS2_PLACEMENT_3D('',#51,#52,#53);
#56=CARTESIAN_POINT('',(0.E0,0.E0,-3.E1));
#57=DIRECTION('',(0.E0,0.E0,-1.E0));
#58=DIRECTION('',(-1.E0,0.E0,0.E0));
#59=AXIS2_PLACEMENT_3D('',#56,#57,#58);
#61=CARTESIAN_POINT('',(2.8E1,-1.064565102737E-13,-3.2E1));
#62=DIRECTION('',(0.E0,1.E0,0.E0));
#63=DIRECTION('',(0.E0,0.E0,1.E0));
#64=AXIS2_PLACEMENT_3D('',#61,#62,#63);
#66=CARTESIAN_POINT('',(0.E0,0.E0,-3.2E1));
#67=DIRECTION('',(0.E0,0.E0,1.E0));
#68=DIRECTION('',(1.E0,0.E0,0.E0));
#69=AXIS2_PLACEMENT_3D('',#66,#67,#68);
#71=DIRECTION('',(0.E0,-1.053063886092E-14,1.E0));
#72=VECTOR('',#71,2.E0);
#73=CARTESIAN_POINT('',(-3.E1,0.E0,-3.4E1));
#74=LINE('',#73,#72);
#75=CARTESIAN_POINT('',(0.E0,0.E0,-3.4E1));
#76=DIRECTION('',(0.E0,0.E0,1.E0));
#77=DIRECTION('',(1.E0,0.E0,0.E0));
#78=AXIS2_PLACEMENT_3D('',#75,#76,#77);
#80=DIRECTION('',(0.E0,1.244837566361E-14,1.E0));
#81=VECTOR('',#80,2.E0);
#82=CARTESIAN_POINT('',(3.E1,-1.007700867195E-14,-3.4E1));
#83=LINE('',#82,#81);
#84=CARTESIAN_POINT('',(2.8E1,-1.208269595487E-13,-3.4E1));
#85=DIRECTION('',(0.E0,1.E0,0.E0));
#86=DIRECTION('',(1.E0,0.E0,0.E0));
#87=AXIS2_PLACEMENT_3D('',#84,#85,#86);
#89=CARTESIAN_POINT('',(2.2E1,2.039410307297E-13,-2.9E1));
#90=DIRECTION('',(0.E0,-1.E0,0.E0));
#91=DIRECTION('',(-1.E0,0.E0,0.E0));
#92=AXIS2_PLACEMENT_3D('',#89,#90,#91);
#94=CARTESIAN_POINT('',(0.E0,0.E0,-1.E0));
#95=DIRECTION('',(0.E0,0.E0,1.E0));
#96=DIRECTION('',(-1.E0,0.E0,0.E0));
#97=AXIS2_PLACEMENT_3D('',#94,#95,#96);
#99=CARTESIAN_POINT('',(0.E0,0.E0,-2.9E1));
#100=DIRECTION('',(0.E0,0.E0,-1.E0));
#101=DIRECTION('',(1.E0,0.E0,0.E0));
#102=AXIS2_PLACEMENT_3D('',#99,#100,#101);
#104=CARTESIAN_POINT('',(-2.E1,2.169722734813E-13,-1.E0));
#105=DIRECTION('',(-1.084852693789E-14,-1.E0,0.E0));
#106=DIRECTION('',(1.065814103640E-14,0.E0,1.E0));
#107=AXIS2_PLACEMENT_3D('',#104,#105,#106);
#109=CARTESIAN_POINT('',(0.E0,0.E0,0.E0));
#110=DIRECTION('',(0.E0,0.E0,1.E0));
#111=DIRECTION('',(1.E0,0.E0,0.E0));
#112=AXIS2_PLACEMENT_3D('',#109,#110,#111);
#114=CARTESIAN_POINT('',(0.E0,0.E0,0.E0));
#115=DIRECTION('',(0.E0,0.E0,1.E0));
#116=DIRECTION('',(-1.E0,0.E0,0.E0));
#117=AXIS2_PLACEMENT_3D('',#114,#115,#116);
#119=CARTESIAN_POINT('',(0.E0,0.E0,0.E0));
#120=DIRECTION('',(0.E0,0.E0,1.E0));
#121=DIRECTION('',(-1.E0,0.E0,0.E0));
#122=AXIS2_PLACEMENT_3D('',#119,#120,#121);
#124=CARTESIAN_POINT('',(0.E0,0.E0,0.E0));
#125=DIRECTION('',(0.E0,0.E0,1.E0));
#126=DIRECTION('',(1.E0,0.E0,0.E0));
#127=AXIS2_PLACEMENT_3D('',#124,#125,#126);
#129=DIRECTION('',(7.071067811865E-1,-1.102231314404E-12,7.071067811865E-1));
#130=VECTOR('',#129,7.071067811865E0);
#131=CARTESIAN_POINT('',(1.45E1,-9.823705289003E-12,-5.E0));
#132=LINE('',#131,#130);
#133=DIRECTION('',(0.E0,-2.041872025253E-12,-1.E0));
#134=VECTOR('',#133,2.6E1);
#135=CARTESIAN_POINT('',(-1.45E1,9.819276706147E-12,-5.E0));
#136=LINE('',#135,#134);
#137=CARTESIAN_POINT('',(0.E0,0.E0,-5.E0));
#138=DIRECTION('',(0.E0,0.E0,1.E0));
#139=DIRECTION('',(1.E0,0.E0,0.E0));
#140=AXIS2_PLACEMENT_3D('',#137,#138,#139);
#142=DIRECTION('',(0.E0,2.041964899679E-12,-1.E0));
#143=VECTOR('',#142,2.6E1);
#144=CARTESIAN_POINT('',(1.45E1,-9.823705289003E-12,-5.E0));
#145=LINE('',#144,#143);
#146=CARTESIAN_POINT('',(0.E0,0.E0,-3.1E1));
#147=DIRECTION('',(0.E0,0.E0,1.E0));
#148=DIRECTION('',(1.E0,0.E0,0.E0));
#149=AXIS2_PLACEMENT_3D('',#146,#147,#148);
#151=CARTESIAN_POINT('',(0.E0,0.E0,-3.1E1));
#152=DIRECTION('',(0.E0,0.E0,1.E0));
#153=DIRECTION('',(-1.E0,0.E0,0.E0));
#154=AXIS2_PLACEMENT_3D('',#151,#152,#153);
#156=CARTESIAN_POINT('',(0.E0,0.E0,-5.E0));
#157=DIRECTION('',(0.E0,0.E0,1.E0));
#158=DIRECTION('',(-1.E0,0.E0,0.E0));
#159=AXIS2_PLACEMENT_3D('',#156,#157,#158);
#161=DIRECTION('',(7.071067811865E-1,4.853467482657E-12,7.071067811865E-1));
#162=VECTOR('',#161,7.071067811865E0);
#163=CARTESIAN_POINT('',(-1.95E1,-7.758859364298E-11,-3.6E1));
#164=LINE('',#163,#162);
#165=DIRECTION('',(-7.071067811865E-1,-4.852762880718E-12,7.071067811865E-1));
#166=VECTOR('',#165,7.071067811865E0);
#167=CARTESIAN_POINT('',(1.95E1,7.758159750711E-11,-3.6E1));
#168=LINE('',#167,#166);
#169=DIRECTION('',(-7.071067811865E-1,1.101459983536E-12,7.071067811865E-1));
#170=VECTOR('',#169,7.071067811865E0);
#171=CARTESIAN_POINT('',(-1.45E1,9.819276706147E-12,-5.E0));
#172=LINE('',#171,#170);
#173=CARTESIAN_POINT('',(2.E1,-2.213576544285E-13,-1.E0));
#174=DIRECTION('',(1.106796945760E-14,1.E0,0.E0));
#175=DIRECTION('',(0.E0,0.E0,1.E0));
#176=AXIS2_PLACEMENT_3D('',#173,#174,#175);
#178=CARTESIAN_POINT('',(0.E0,0.E0,-1.E0));
#179=DIRECTION('',(0.E0,0.E0,1.E0));
#180=DIRECTION('',(1.E0,0.E0,0.E0));
#181=AXIS2_PLACEMENT_3D('',#178,#179,#180);
#183=DIRECTION('',(0.E0,0.E0,1.E0));
#184=VECTOR('',#183,2.8E1);
#185=CARTESIAN_POINT('',(-2.1E1,0.E0,-2.9E1));
#186=LINE('',#185,#184);
#187=CARTESIAN_POINT('',(0.E0,0.E0,-2.9E1));
#188=DIRECTION('',(0.E0,0.E0,-1.E0));
#189=DIRECTION('',(-1.E0,0.E0,0.E0));
#190=AXIS2_PLACEMENT_3D('',#187,#188,#189);
#192=DIRECTION('',(0.E0,0.E0,1.E0));
#193=VECTOR('',#192,2.8E1);
#194=CARTESIAN_POINT('',(2.1E1,0.E0,-2.9E1));
#195=LINE('',#194,#193);
#196=CARTESIAN_POINT('',(-2.2E1,-2.091105066881E-13,-2.9E1));
#197=DIRECTION('',(0.E0,1.E0,0.E0));
#198=DIRECTION('',(1.E0,0.E0,0.E0));
#199=AXIS2_PLACEMENT_3D('',#196,#197,#198);
#201=CARTESIAN_POINT('',(-2.8E1,0.E0,-3.E1));
#202=CARTESIAN_POINT('',(2.8E1,0.E0,-3.E1));
#203=VERTEX_POINT('',#201);
#204=VERTEX_POINT('',#202);
#205=CARTESIAN_POINT('',(-3.E1,0.E0,-3.2E1));
#206=CARTESIAN_POINT('',(3.E1,0.E0,-3.2E1));
#207=VERTEX_POINT('',#205);
#208=VERTEX_POINT('',#206);
#209=CARTESIAN_POINT('',(-3.E1,0.E0,-3.4E1));
#210=CARTESIAN_POINT('',(3.E1,0.E0,-3.4E1));
#211=VERTEX_POINT('',#209);
#212=VERTEX_POINT('',#210);
#213=CARTESIAN_POINT('',(-2.8E1,0.E0,-3.6E1));
#214=CARTESIAN_POINT('',(2.8E1,0.E0,-3.6E1));
#215=VERTEX_POINT('',#213);
#216=VERTEX_POINT('',#214);
#217=CARTESIAN_POINT('',(-1.45E1,9.819276706147E-12,-5.E0));
#218=CARTESIAN_POINT('',(-1.45E1,-4.326939595043E-11,-3.1E1));
#219=VERTEX_POINT('',#217);
#220=VERTEX_POINT('',#218);
#221=CARTESIAN_POINT('',(1.45E1,-9.823705289003E-12,-5.E0));
#222=CARTESIAN_POINT('',(1.45E1,4.326738210265E-11,-3.1E1));
#223=VERTEX_POINT('',#221);
#224=VERTEX_POINT('',#222);
#225=CARTESIAN_POINT('',(2.1E1,0.E0,-2.9E1));
#226=CARTESIAN_POINT('',(-2.1E1,0.E0,-2.9E1));
#227=VERTEX_POINT('',#225);
#228=VERTEX_POINT('',#226);
#229=CARTESIAN_POINT('',(2.2E1,0.E0,-3.E1));
#230=CARTESIAN_POINT('',(-2.2E1,0.E0,-3.E1));
#231=VERTEX_POINT('',#229);
#232=VERTEX_POINT('',#230);
#233=CARTESIAN_POINT('',(-2.E1,0.E0,0.E0));
#234=CARTESIAN_POINT('',(2.E1,0.E0,0.E0));
#235=VERTEX_POINT('',#233);
#236=VERTEX_POINT('',#234);
#237=CARTESIAN_POINT('',(-2.1E1,0.E0,-1.E0));
#238=CARTESIAN_POINT('',(2.1E1,0.E0,-1.E0));
#239=VERTEX_POINT('',#237);
#240=VERTEX_POINT('',#238);
#241=CARTESIAN_POINT('',(1.95E1,0.E0,0.E0));
#242=CARTESIAN_POINT('',(-1.95E1,0.E0,0.E0));
#243=VERTEX_POINT('',#241);
#244=VERTEX_POINT('',#242);
#245=CARTESIAN_POINT('',(1.95E1,0.E0,-3.6E1));
#246=CARTESIAN_POINT('',(-1.95E1,0.E0,-3.6E1));
#247=VERTEX_POINT('',#245);
#248=VERTEX_POINT('',#246);
#249=CARTESIAN_POINT('',(0.E0,0.E0,-3.6E1));
#250=DIRECTION('',(0.E0,0.E0,1.E0));
#251=DIRECTION('',(-1.E0,0.E0,0.E0));
#252=AXIS2_PLACEMENT_3D('',#249,#250,#251);
#253=PLANE('',#252);
#255=ORIENTED_EDGE('',*,*,#254,.T.);
#257=ORIENTED_EDGE('',*,*,#256,.T.);
#258=EDGE_LOOP('',(#255,#257));
#259=FACE_OUTER_BOUND('',#258,.F.);
#261=ORIENTED_EDGE('',*,*,#260,.F.);
#263=ORIENTED_EDGE('',*,*,#262,.F.);
#264=EDGE_LOOP('',(#261,#263));
#265=FACE_BOUND('',#264,.F.);
#266=ADVANCED_FACE('',(#259,#265),#253,.F.);
#267=CARTESIAN_POINT('',(0.E0,0.E0,-3.4E1));
#268=DIRECTION('',(0.E0,0.E0,1.E0));
#269=DIRECTION('',(-9.999992336431E-1,1.238027956855E-3,0.E0));
#270=AXIS2_PLACEMENT_3D('',#267,#268,#269);
#271=TOROIDAL_SURFACE('',#270,2.8E1,2.E0);
#273=ORIENTED_EDGE('',*,*,#272,.T.);
#275=ORIENTED_EDGE('',*,*,#274,.T.);
#276=ORIENTED_EDGE('',*,*,#254,.F.);
#278=ORIENTED_EDGE('',*,*,#277,.F.);
#279=EDGE_LOOP('',(#273,#275,#276,#278));
#280=FACE_OUTER_BOUND('',#279,.F.);
#281=ADVANCED_FACE('',(#280),#271,.T.);
#282=CARTESIAN_POINT('',(0.E0,0.E0,0.E0));
#283=DIRECTION('',(0.E0,0.E0,1.E0));
#284=DIRECTION('',(-1.E0,0.E0,0.E0));
#285=AXIS2_PLACEMENT_3D('',#282,#283,#284);
#286=CYLINDRICAL_SURFACE('',#285,3.E1);
#288=ORIENTED_EDGE('',*,*,#287,.T.);
#290=ORIENTED_EDGE('',*,*,#289,.F.);
#291=ORIENTED_EDGE('',*,*,#272,.F.);
#293=ORIENTED_EDGE('',*,*,#292,.T.);
#294=EDGE_LOOP('',(#288,#290,#291,#293));
#295=FACE_OUTER_BOUND('',#294,.F.);
#296=ADVANCED_FACE('',(#295),#286,.T.);
#297=CARTESIAN_POINT('',(0.E0,0.E0,-3.2E1));
#298=DIRECTION('',(0.E0,0.E0,1.E0));
#299=DIRECTION('',(-9.999993025402E-1,1.181066900199E-3,0.E0));
#300=AXIS2_PLACEMENT_3D('',#297,#298,#299);
#301=TOROIDAL_SURFACE('',#300,2.8E1,2.E0);
#303=ORIENTED_EDGE('',*,*,#302,.T.);
#305=ORIENTED_EDGE('',*,*,#304,.T.);
#306=ORIENTED_EDGE('',*,*,#287,.F.);
#308=ORIENTED_EDGE('',*,*,#307,.F.);
#309=EDGE_LOOP('',(#303,#305,#306,#308));
#310=FACE_OUTER_BOUND('',#309,.F.);
#311=ADVANCED_FACE('',(#310),#301,.T.);
#312=CARTESIAN_POINT('',(0.E0,0.E0,-3.E1));
#313=DIRECTION('',(0.E0,0.E0,1.E0));
#314=DIRECTION('',(-1.E0,0.E0,0.E0));
#315=AXIS2_PLACEMENT_3D('',#312,#313,#314);
#316=PLANE('',#315);
#317=ORIENTED_EDGE('',*,*,#302,.F.);
#319=ORIENTED_EDGE('',*,*,#318,.F.);
#320=EDGE_LOOP('',(#317,#319));
#321=FACE_OUTER_BOUND('',#320,.F.);
#323=ORIENTED_EDGE('',*,*,#322,.F.);
#325=ORIENTED_EDGE('',*,*,#324,.F.);
#326=EDGE_LOOP('',(#323,#325));
#327=FACE_BOUND('',#326,.F.);
#328=ADVANCED_FACE('',(#321,#327),#316,.T.);
#329=CARTESIAN_POINT('',(0.E0,0.E0,-3.2E1));
#330=DIRECTION('',(0.E0,0.E0,1.E0));
#331=DIRECTION('',(9.999993025402E-1,-1.181066900200E-3,0.E0));
#332=AXIS2_PLACEMENT_3D('',#329,#330,#331);
#333=TOROIDAL_SURFACE('',#332,2.8E1,2.E0);
#334=ORIENTED_EDGE('',*,*,#318,.T.);
#335=ORIENTED_EDGE('',*,*,#307,.T.);
#337=ORIENTED_EDGE('',*,*,#336,.F.);
#338=ORIENTED_EDGE('',*,*,#304,.F.);
#339=EDGE_LOOP('',(#334,#335,#337,#338));
#340=FACE_OUTER_BOUND('',#339,.F.);
#341=ADVANCED_FACE('',(#340),#333,.T.);
#342=CARTESIAN_POINT('',(0.E0,0.E0,0.E0));
#343=DIRECTION('',(0.E0,0.E0,1.E0));
#344=DIRECTION('',(-1.E0,0.E0,0.E0));
#345=AXIS2_PLACEMENT_3D('',#342,#343,#344);
#346=CYLINDRICAL_SURFACE('',#345,3.E1);
#347=ORIENTED_EDGE('',*,*,#336,.T.);
#348=ORIENTED_EDGE('',*,*,#292,.F.);
#350=ORIENTED_EDGE('',*,*,#349,.F.);
#351=ORIENTED_EDGE('',*,*,#289,.T.);
#352=EDGE_LOOP('',(#347,#348,#350,#351));
#353=FACE_OUTER_BOUND('',#352,.F.);
#354=ADVANCED_FACE('',(#353),#346,.T.);
#355=CARTESIAN_POINT('',(0.E0,0.E0,-3.4E1));
#356=DIRECTION('',(0.E0,0.E0,1.E0));
#357=DIRECTION('',(9.999992336431E-1,-1.238027956856E-3,0.E0));
#358=AXIS2_PLACEMENT_3D('',#355,#356,#357);
#359=TOROIDAL_SURFACE('',#358,2.8E1,2.E0);
#360=ORIENTED_EDGE('',*,*,#349,.T.);
#361=ORIENTED_EDGE('',*,*,#277,.T.);
#362=ORIENTED_EDGE('',*,*,#256,.F.);
#363=ORIENTED_EDGE('',*,*,#274,.F.);
#364=EDGE_LOOP('',(#360,#361,#362,#363));
#365=FACE_OUTER_BOUND('',#364,.F.);
#366=ADVANCED_FACE('',(#365),#359,.T.);
#367=CARTESIAN_POINT('',(0.E0,0.E0,-2.9E1));
#368=DIRECTION('',(0.E0,0.E0,1.E0));
#369=DIRECTION('',(9.999986840315E-1,1.622324051505E-3,0.E0));
#370=AXIS2_PLACEMENT_3D('',#367,#368,#369);
#371=TOROIDAL_SURFACE('',#370,2.2E1,1.E0);
#373=ORIENTED_EDGE('',*,*,#372,.F.);
#375=ORIENTED_EDGE('',*,*,#374,.T.);
#376=ORIENTED_EDGE('',*,*,#322,.T.);
#378=ORIENTED_EDGE('',*,*,#377,.F.);
#379=EDGE_LOOP('',(#373,#375,#376,#378));
#380=FACE_OUTER_BOUND('',#379,.F.);
#381=ADVANCED_FACE('',(#380),#371,.F.);
#382=CARTESIAN_POINT('',(0.E0,0.E0,0.E0));
#383=DIRECTION('',(0.E0,0.E0,1.E0));
#384=DIRECTION('',(-1.E0,0.E0,0.E0));
#385=AXIS2_PLACEMENT_3D('',#382,#383,#384);
#386=CYLINDRICAL_SURFACE('',#385,2.1E1);
#388=ORIENTED_EDGE('',*,*,#387,.T.);
#390=ORIENTED_EDGE('',*,*,#389,.F.);
#391=ORIENTED_EDGE('',*,*,#372,.T.);
#393=ORIENTED_EDGE('',*,*,#392,.T.);
#394=EDGE_LOOP('',(#388,#390,#391,#393));
#395=FACE_OUTER_BOUND('',#394,.F.);
#396=ADVANCED_FACE('',(#395),#386,.T.);
#397=CARTESIAN_POINT('',(0.E0,0.E0,-1.E0));
#398=DIRECTION('',(0.E0,0.E0,1.E0));
#399=DIRECTION('',(-9.999985766129E-1,1.687238020585E-3,0.E0));
#400=AXIS2_PLACEMENT_3D('',#397,#398,#399);
#401=TOROIDAL_SURFACE('',#400,2.E1,1.E0);
#403=ORIENTED_EDGE('',*,*,#402,.T.);
#405=ORIENTED_EDGE('',*,*,#404,.T.);
#406=ORIENTED_EDGE('',*,*,#387,.F.);
#408=ORIENTED_EDGE('',*,*,#407,.F.);
#409=EDGE_LOOP('',(#403,#405,#406,#408));
#410=FACE_OUTER_BOUND('',#409,.F.);
#411=ADVANCED_FACE('',(#410),#401,.T.);
#412=CARTESIAN_POINT('',(0.E0,0.E0,0.E0));
#413=DIRECTION('',(0.E0,0.E0,1.E0));
#414=DIRECTION('',(-1.E0,0.E0,0.E0));
#415=AXIS2_PLACEMENT_3D('',#412,#413,#414);
#416=PLANE('',#415);
#417=ORIENTED_EDGE('',*,*,#402,.F.);
#419=ORIENTED_EDGE('',*,*,#418,.F.);
#420=EDGE_LOOP('',(#417,#419));
#421=FACE_OUTER_BOUND('',#420,.F.);
#423=ORIENTED_EDGE('',*,*,#422,.T.);
#425=ORIENTED_EDGE('',*,*,#424,.T.);
#426=EDGE_LOOP('',(#423,#425));
#427=FACE_BOUND('',#426,.F.);
#428=ADVANCED_FACE('',(#421,#427),#416,.T.);
#429=CARTESIAN_POINT('',(0.E0,0.E0,-2.5E0));
#430=DIRECTION('',(0.E0,0.E0,1.E0));
#431=DIRECTION('',(0.E0,-1.E0,0.E0));
#432=AXIS2_PLACEMENT_3D('',#429,#430,#431);
#433=CONICAL_SURFACE('',#432,1.7E1,4.5E1);
#435=ORIENTED_EDGE('',*,*,#434,.T.);
#437=ORIENTED_EDGE('',*,*,#436,.T.);
#438=ORIENTED_EDGE('',*,*,#422,.F.);
#440=ORIENTED_EDGE('',*,*,#439,.F.);
#441=EDGE_LOOP('',(#435,#437,#438,#440));
#442=FACE_OUTER_BOUND('',#441,.F.);
#443=ADVANCED_FACE('',(#442),#433,.F.);
#444=CARTESIAN_POINT('',(0.E0,0.E0,0.E0));
#445=DIRECTION('',(0.E0,0.E0,1.E0));
#446=DIRECTION('',(-1.E0,0.E0,0.E0));
#447=AXIS2_PLACEMENT_3D('',#444,#445,#446);
#448=CYLINDRICAL_SURFACE('',#447,1.45E1);
#450=ORIENTED_EDGE('',*,*,#449,.F.);
#451=ORIENTED_EDGE('',*,*,#434,.F.);
#453=ORIENTED_EDGE('',*,*,#452,.T.);
#455=ORIENTED_EDGE('',*,*,#454,.T.);
#456=EDGE_LOOP('',(#450,#451,#453,#455));
#457=FACE_OUTER_BOUND('',#456,.F.);
#458=ADVANCED_FACE('',(#457),#448,.F.);
#459=CARTESIAN_POINT('',(0.E0,0.E0,0.E0));
#460=DIRECTION('',(0.E0,0.E0,1.E0));
#461=DIRECTION('',(-1.E0,0.E0,0.E0));
#462=AXIS2_PLACEMENT_3D('',#459,#460,#461);
#463=CYLINDRICAL_SURFACE('',#462,1.45E1);
#464=ORIENTED_EDGE('',*,*,#449,.T.);
#466=ORIENTED_EDGE('',*,*,#465,.T.);
#467=ORIENTED_EDGE('',*,*,#452,.F.);
#469=ORIENTED_EDGE('',*,*,#468,.F.);
#470=EDGE_LOOP('',(#464,#466,#467,#469));
#471=FACE_OUTER_BOUND('',#470,.F.);
#472=ADVANCED_FACE('',(#471),#463,.F.);
#473=CARTESIAN_POINT('',(0.E0,0.E0,-3.35E1));
#474=DIRECTION('',(0.E0,0.E0,-1.E0));
#475=DIRECTION('',(0.E0,-1.E0,0.E0));
#476=AXIS2_PLACEMENT_3D('',#473,#474,#475);
#477=CONICAL_SURFACE('',#476,1.7E1,4.5E1);
#478=ORIENTED_EDGE('',*,*,#262,.T.);
#480=ORIENTED_EDGE('',*,*,#479,.T.);
#481=ORIENTED_EDGE('',*,*,#465,.F.);
#483=ORIENTED_EDGE('',*,*,#482,.F.);
#484=EDGE_LOOP('',(#478,#480,#481,#483));
#485=FACE_OUTER_BOUND('',#484,.F.);
#486=ADVANCED_FACE('',(#485),#477,.F.);
#487=CARTESIAN_POINT('',(0.E0,0.E0,-3.35E1));
#488=DIRECTION('',(0.E0,0.E0,-1.E0));
#489=DIRECTION('',(0.E0,-1.E0,0.E0));
#490=AXIS2_PLACEMENT_3D('',#487,#488,#489);
#491=CONICAL_SURFACE('',#490,1.7E1,4.5E1);
#492=ORIENTED_EDGE('',*,*,#260,.T.);
#493=ORIENTED_EDGE('',*,*,#482,.T.);
#494=ORIENTED_EDGE('',*,*,#454,.F.);
#495=ORIENTED_EDGE('',*,*,#479,.F.);
#496=EDGE_LOOP('',(#492,#493,#494,#495));
#497=FACE_OUTER_BOUND('',#496,.F.);
#498=ADVANCED_FACE('',(#497),#491,.F.);
#499=CARTESIAN_POINT('',(0.E0,0.E0,-2.5E0));
#500=DIRECTION('',(0.E0,0.E0,1.E0));
#501=DIRECTION('',(0.E0,-1.E0,0.E0));
#502=AXIS2_PLACEMENT_3D('',#499,#500,#501);
#503=CONICAL_SURFACE('',#502,1.7E1,4.5E1);
#504=ORIENTED_EDGE('',*,*,#468,.T.);
#505=ORIENTED_EDGE('',*,*,#439,.T.);
#506=ORIENTED_EDGE('',*,*,#424,.F.);
#507=ORIENTED_EDGE('',*,*,#436,.F.);
#508=EDGE_LOOP('',(#504,#505,#506,#507));
#509=FACE_OUTER_BOUND('',#508,.F.);
#510=ADVANCED_FACE('',(#509),#503,.F.);
#511=CARTESIAN_POINT('',(0.E0,0.E0,-1.E0));
#512=DIRECTION('',(0.E0,0.E0,1.E0));
#513=DIRECTION('',(9.999985766129E-1,-1.687238020585E-3,0.E0));
#514=AXIS2_PLACEMENT_3D('',#511,#512,#513);
#515=TOROIDAL_SURFACE('',#514,2.E1,1.E0);
#516=ORIENTED_EDGE('',*,*,#418,.T.);
#517=ORIENTED_EDGE('',*,*,#407,.T.);
#519=ORIENTED_EDGE('',*,*,#518,.F.);
#520=ORIENTED_EDGE('',*,*,#404,.F.);
#521=EDGE_LOOP('',(#516,#517,#519,#520));
#522=FACE_OUTER_BOUND('',#521,.F.);
#523=ADVANCED_FACE('',(#522),#515,.T.);
#524=CARTESIAN_POINT('',(0.E0,0.E0,0.E0));
#525=DIRECTION('',(0.E0,0.E0,1.E0));
#526=DIRECTION('',(-1.E0,0.E0,0.E0));
#527=AXIS2_PLACEMENT_3D('',#524,#525,#526);
#528=CYLINDRICAL_SURFACE('',#527,2.1E1);
#529=ORIENTED_EDGE('',*,*,#518,.T.);
#530=ORIENTED_EDGE('',*,*,#392,.F.);
#532=ORIENTED_EDGE('',*,*,#531,.T.);
#533=ORIENTED_EDGE('',*,*,#389,.T.);
#534=EDGE_LOOP('',(#529,#530,#532,#533));
#535=FACE_OUTER_BOUND('',#534,.F.);
#536=ADVANCED_FACE('',(#535),#528,.T.);
#537=CARTESIAN_POINT('',(0.E0,0.E0,-2.9E1));
#538=DIRECTION('',(0.E0,0.E0,1.E0));
#539=DIRECTION('',(-9.999986840315E-1,-1.622324051505E-3,0.E0));
#540=AXIS2_PLACEMENT_3D('',#537,#538,#539);
#541=TOROIDAL_SURFACE('',#540,2.2E1,1.E0);
#542=ORIENTED_EDGE('',*,*,#531,.F.);
#543=ORIENTED_EDGE('',*,*,#377,.T.);
#544=ORIENTED_EDGE('',*,*,#324,.T.);
#545=ORIENTED_EDGE('',*,*,#374,.F.);
#546=EDGE_LOOP('',(#542,#543,#544,#545));
#547=FACE_OUTER_BOUND('',#546,.F.);
#548=ADVANCED_FACE('',(#547),#541,.F.);
#552=DIMENSIONAL_EXPONENTS(0.E0,0.E0,0.E0,0.E0,0.E0,0.E0,0.E0);
#554=PLANE_ANGLE_MEASURE_WITH_UNIT(PLANE_ANGLE_MEASURE(1.745329251994E-2),#553);
#555=(CONVERSION_BASED_UNIT('DEGREE',#554)NAMED_UNIT(*)PLANE_ANGLE_UNIT());
#557=UNCERTAINTY_MEASURE_WITH_UNIT(LENGTH_MEASURE(2.304251550612E-3),#551,
'closure',
'Maximum model space distance between geometric entities at asserted connectivities');
#558=(GEOMETRIC_REPRESENTATION_CONTEXT(3)GLOBAL_UNCERTAINTY_ASSIGNED_CONTEXT((
#557))GLOBAL_UNIT_ASSIGNED_CONTEXT((#551,#555,#556))REPRESENTATION_CONTEXT
('ID1','3'));
#560=APPLICATION_CONTEXT(
'CONFIGURATION CONTROLLED 3D DESIGNS OF MECHANICAL PARTS AND ASSEMBLIES');
#561=APPLICATION_PROTOCOL_DEFINITION('international standard',
'config_control_design',1994,#560);
#562=DESIGN_CONTEXT('',#560,'design');
#563=MECHANICAL_CONTEXT('',#560,'mechanical');
#564=PRODUCT('AS000002','AS000002','NOT SPECIFIED',(#563));
#565=PRODUCT_DEFINITION_FORMATION_WITH_SPECIFIED_SOURCE('1','LAST_VERSION',#564,
.MADE.);
#569=PRODUCT_CATEGORY('part','');
#570=PRODUCT_RELATED_PRODUCT_CATEGORY('detail','',(#564));
#571=PRODUCT_CATEGORY_RELATIONSHIP('','',#569,#570);
#572=SECURITY_CLASSIFICATION_LEVEL('unclassified');
#573=SECURITY_CLASSIFICATION('','',#572);
#574=CC_DESIGN_SECURITY_CLASSIFICATION(#573,(#565));
#575=APPROVAL_STATUS('approved');
#576=APPROVAL(#575,'');
#577=CC_DESIGN_APPROVAL(#576,(#573,#565,#566));
#578=CALENDAR_DATE(124,26,7);
#579=COORDINATED_UNIVERSAL_TIME_OFFSET(2,0,.AHEAD.);
#580=LOCAL_TIME(15,19,1.8E1,#579);
#581=DATE_AND_TIME(#578,#580);
#582=APPROVAL_DATE_TIME(#581,#576);
#583=DATE_TIME_ROLE('creation_date');
#584=CC_DESIGN_DATE_AND_TIME_ASSIGNMENT(#581,#583,(#566));
#585=DATE_TIME_ROLE('classification_date');
#586=CC_DESIGN_DATE_AND_TIME_ASSIGNMENT(#581,#585,(#573));
#587=PERSON('UNSPECIFIED','UNSPECIFIED',$,$,$,$);
#588=ORGANIZATION('UNSPECIFIED','UNSPECIFIED','UNSPECIFIED');
#589=PERSON_AND_ORGANIZATION(#587,#588);
#590=APPROVAL_ROLE('approver');
#591=APPROVAL_PERSON_ORGANIZATION(#589,#576,#590);
#592=PERSON_AND_ORGANIZATION_ROLE('creator');
#593=CC_DESIGN_PERSON_AND_ORGANIZATION_ASSIGNMENT(#589,#592,(#565,#566));
#594=PERSON_AND_ORGANIZATION_ROLE('design_supplier');
#595=CC_DESIGN_PERSON_AND_ORGANIZATION_ASSIGNMENT(#589,#594,(#565));
#596=PERSON_AND_ORGANIZATION_ROLE('classification_officer');
#597=CC_DESIGN_PERSON_AND_ORGANIZATION_ASSIGNMENT(#589,#596,(#573));
#598=PERSON_AND_ORGANIZATION_ROLE('design_owner');
#599=CC_DESIGN_PERSON_AND_ORGANIZATION_ASSIGNMENT(#589,#598,(#564));
#5=CIRCLE('',#4,2.8E1);
#10=CIRCLE('',#9,2.8E1);
#15=CIRCLE('',#14,1.95E1);
#20=CIRCLE('',#19,1.95E1);
#25=CIRCLE('',#24,2.E0);
#30=CIRCLE('',#29,3.E1);
#35=CIRCLE('',#34,3.E1);
#40=CIRCLE('',#39,2.E0);
#45=CIRCLE('',#44,2.8E1);
#50=CIRCLE('',#49,2.8E1);
#55=CIRCLE('',#54,2.2E1);
#60=CIRCLE('',#59,2.2E1);
#65=CIRCLE('',#64,2.E0);
#70=CIRCLE('',#69,3.E1);
#79=CIRCLE('',#78,3.E1);
#88=CIRCLE('',#87,2.E0);
#93=CIRCLE('',#92,1.E0);
#98=CIRCLE('',#97,2.1E1);
#103=CIRCLE('',#102,2.1E1);
#108=CIRCLE('',#107,1.E0);
#113=CIRCLE('',#112,1.95E1);
#118=CIRCLE('',#117,1.95E1);
#123=CIRCLE('',#122,2.E1);
#128=CIRCLE('',#127,2.E1);
#141=CIRCLE('',#140,1.45E1);
#150=CIRCLE('',#149,1.45E1);
#155=CIRCLE('',#154,1.45E1);
#160=CIRCLE('',#159,1.45E1);
#177=CIRCLE('',#176,1.E0);
#182=CIRCLE('',#181,2.1E1);
#191=CIRCLE('',#190,2.1E1);
#200=CIRCLE('',#199,1.E0);
#254=EDGE_CURVE('',#215,#216,#5,.T.);
#256=EDGE_CURVE('',#216,#215,#10,.T.);
#260=EDGE_CURVE('',#247,#248,#15,.T.);
#262=EDGE_CURVE('',#248,#247,#20,.T.);
#272=EDGE_CURVE('',#211,#212,#35,.T.);
#274=EDGE_CURVE('',#212,#216,#88,.T.);
#277=EDGE_CURVE('',#211,#215,#25,.T.);
#287=EDGE_CURVE('',#207,#208,#30,.T.);
#289=EDGE_CURVE('',#212,#208,#83,.T.);
#292=EDGE_CURVE('',#211,#207,#74,.T.);
#302=EDGE_CURVE('',#203,#204,#45,.T.);
#304=EDGE_CURVE('',#204,#208,#65,.T.);
#307=EDGE_CURVE('',#203,#207,#40,.T.);
#318=EDGE_CURVE('',#204,#203,#50,.T.);
#322=EDGE_CURVE('',#231,#232,#55,.T.);
#324=EDGE_CURVE('',#232,#231,#60,.T.);
#336=EDGE_CURVE('',#208,#207,#70,.T.);
#349=EDGE_CURVE('',#212,#211,#79,.T.);
#372=EDGE_CURVE('',#227,#228,#103,.T.);
#374=EDGE_CURVE('',#227,#231,#93,.T.);
#377=EDGE_CURVE('',#228,#232,#200,.T.);
#387=EDGE_CURVE('',#239,#240,#98,.T.);
#389=EDGE_CURVE('',#227,#240,#195,.T.);
#392=EDGE_CURVE('',#228,#239,#186,.T.);
#402=EDGE_CURVE('',#235,#236,#123,.T.);
#404=EDGE_CURVE('',#236,#240,#177,.T.);
#407=EDGE_CURVE('',#235,#239,#108,.T.);
#418=EDGE_CURVE('',#236,#235,#128,.T.);
#422=EDGE_CURVE('',#243,#244,#113,.T.);
#424=EDGE_CURVE('',#244,#243,#118,.T.);
#434=EDGE_CURVE('',#223,#219,#141,.T.);
#436=EDGE_CURVE('',#219,#244,#172,.T.);
#439=EDGE_CURVE('',#223,#243,#132,.T.);
#449=EDGE_CURVE('',#219,#220,#136,.T.);
#452=EDGE_CURVE('',#223,#224,#145,.T.);
#454=EDGE_CURVE('',#224,#220,#150,.T.);
#465=EDGE_CURVE('',#220,#224,#155,.T.);
#468=EDGE_CURVE('',#219,#223,#160,.T.);
#479=EDGE_CURVE('',#247,#224,#168,.T.);
#482=EDGE_CURVE('',#248,#220,#164,.T.);
#518=EDGE_CURVE('',#240,#239,#182,.T.);
#531=EDGE_CURVE('',#228,#227,#191,.T.);
#549=CLOSED_SHELL('',(#266,#281,#296,#311,#328,#341,#354,#366,#381,#396,#411,
#428,#443,#458,#472,#486,#498,#510,#523,#536,#548));
#550=MANIFOLD_SOLID_BREP('',#549);
#551=(LENGTH_UNIT()NAMED_UNIT(*)SI_UNIT(.MILLI.,.METRE.));
#553=(NAMED_UNIT(*)PLANE_ANGLE_UNIT()SI_UNIT($,.RADIAN.));
#556=(NAMED_UNIT(*)SI_UNIT($,.STERADIAN.)SOLID_ANGLE_UNIT());
#559=ADVANCED_BREP_SHAPE_REPRESENTATION('',(#550),#558);
#566=PRODUCT_DEFINITION('design','',#565,#562);
#567=PRODUCT_DEFINITION_SHAPE('','SHAPE FOR AS000002.',#566);
#568=SHAPE_DEFINITION_REPRESENTATION(#567,#559);
ENDSEC;
END-ISO-10303-21;
